歌手头像-陳綺貞

越洋電話

1 2 3 4 5
x

音乐人: 陳綺貞

供谱者:reecho
詞/曲: 陳綺貞
---------------------------------------------------------------------------
Key:B   Play:A   Capo=2

CHORD :
Amaj7 - 02120x
A6/D  - 22245x
Asus4 - 03220x
A/C#  - 22224x
Bm7   - 23242x

INTRO :
   A6/D            Amaj7          A6/D          Amaj7
-|---------------|---------------|------------|--0---------|
-|-------2-------|-------2-------|------2-----|--2---------|
-|----2--2--2----|-----1-1-1-----|----2-2-2---|--1---------|
-|--4---------4--|---2-------2---|--4-------4-|--2---------|
-|-5-------------|-0-------------|-5----------|--0---------|
-|---------------|---------------|------------|------------|

VERSE 1 :
   A6/D            Amaj7
-|---------------|---------------|
-|-------2-------|-------2-------|
-|----2--2--2----|-----1-1-1-----|
-|--4---------4--|---2-------2---|
-|-5-------------|-0-------------|
-|---------------|---------------|
       A6/D      Amaj7
如果你只是因爲懶惰

   A6/D            Amaj7
-|---------------|---------------|
-|-------2-------|-------2-------|
-|----2--2--2----|-----1-1-1-----|
-|--4---------4--|---2-------2---|
-|-5-------------|-0-------------|
-|---------------|---------------|

       A6/D      Amaj7
如果你不願再想太多

   A6/D            Amaj7
-|---------------|-------0-------|
-|-------2-------|---------------|
-|----2--2--2----|-----1---1-----|
-|--4---------4--|---2-------2---|
-|-5-------------|-0-------------|
-|---------------|---------------|
       A6/D     Amaj7
如果你厭倦了你後悔了

   Bm7    E         A
-|-------------0--|-0-----------|
-|------2------0--|-2-----------|
-|------3---------|-2-----------|
-|---4-------2----|-2-----------|
-|-2--------------|-0-----------|
-|---------0------|-------------|
   Bm7 E    A
請回到我身後

VERSE 2 :

       A6/D      Amaj7
如果你還在堅持什麼
       A6/D      Amaj7
如果你忍受不了寂寞
   A6/D            Asus4
-|---------------|------------|
-|-------3-------|-3----------|
-|----2-----2----|-2----------|
-|--4---------4--|-2----------|
-|-5-------------|-0----------|
-|---------------|------------|
       A6/D    Asus4
如果你厭倦了你後悔了
   Bm7    E         A
-|-------------0--|- ------------0--|
-|------2------0--|-2------2-----2--|
-|------3---------|-2----2---2---2--|
-|---4-------2----|-2--2------2--2--|
-|-2--------------|-0------------0--|
-|---------0------|-----------------|
     Bm7 E   A
假裝我在你身後


Play as what as you want :

       A/C#  F#m   Bm7   E
我只是不願意這樣開口
     A/C#        F#m   Bm7   E
害怕你在電話線的那頭淚流淚流


SOLO :
  D         A        D     A
-|-------0---0------|-------------------|-------0---0-----|------------0--|---
-|---2h3---3---3----|---2----2---2------|---2h3---3---3---|--2---2--------|---
-|------------------|---2h4----4---2----|-----------------|--2h4---1-2----|---
-|-0-------------2--|----------------2--|-0-------------2-|---------------|---
-|------------------|-0-----------------|-----------------|-0-------------|---
-|------------------|-------------------|-----------------|---------------|---

    D       A         D       Amaj7
-|-------0----------|-------------------|-------5---------|-0-------------|---
-|---2h3---3--------|---2---2-----------|-3-2h3-----------|-2-------------|---
-|------------2---2-|---2h4-----1-2-----|-2-------1-------|-1-------------|---
-|-0------------0---|---------------2---|-0---------2-----|-2-------------|---
-|------------------|-0-----------------|-----------------|-0-------------|---
-|------------------|-------------------|-----------------|---------------|---

SAME AS VERSE 1 :

如果你的回憶太多
如果你的責任太重
如果你只是因爲你只是因爲
只是因爲寂寞


------------------------
Created by 結他友 Studio
------------------------
添加到谱单
X

添加到谱单

《 越洋電話 -- 陳綺貞 》加入
◎ 选择已有谱单 创建新的

公开 (默认不公开,欢迎创建有意思的"公开谱单")

创建取消

推荐语(选填)

X

请先登录chord4


忘记密码