歌手头像-陳綺貞

就算全世界與我爲敵

1 2 3 4 5
x

音乐人: 陳綺貞

供谱者:reecho
曲: 陳綺貞   詞: 陳綺貞
編配者:Pauline Wong < paulinepocket@hotmail.com >

 Intro:      D
-|-----------0---------------------------|
-|-----3--------3----------3--------3----|
-|----2---2--------2-----2---2----2---2--|
-|--0------------------4--------5--------|
-|---------------------------------------|
-|---------------------------------------|    x4
     D                                             C
-|-----------0---------------------------|    -|-------------------------|
-|-----3--------3----------3--------3----|    -|-------1-----------1-----|
-|----2---2--------2-----2---2----2---2--|    -|----0-----0-----0-----0--|
-|--0------------------4--------5--------|    -|-------------------------|
-|---------------------------------------|    -|--3----------3-----------|
-|---------------------------------------|    -|-------------------------|

    D                       D
   看你的眼神 有一點懷疑   再這樣下去 我如何討你歡心
    D                         C
   閉上了眼睛 什麼都不想聽   誰都別說 我就要失去耐性
     D                        D
 @ 看你的表情 有一點不確定   眼看被愛情圍困的腳步如何看齊
    D                        C
   離開了人羣 什麼都不想聽   誰都別問 我早已下定決心

   Chord:
        D              G
 # 就算全世界與我爲敵 我還是要愛你
       D              C
   踩著愛情的潮汐 在你我之間來來去去 (付出所有的勇氣 讓愛如潮汐自由來去)
       D              G
   就算全世界與我爲敵 我也不會逃避
     C                          C                  D
   我要的不只是愛你而已   我要讓所有虛僞的人都看清自己
   Repeat @ #     D   G    D    C    D
   Repeat #

   Tab:
         D                   D    D    D    D
   就讓我一步一步一步跟著你
添加到谱单
X

添加到谱单

《 就算全世界與我爲敵 -- 陳綺貞 》加入
◎ 选择已有谱单 创建新的

公开 (默认不公开,欢迎创建有意思的"公开谱单")

创建取消

推荐语(选填)

X

请先登录chord4


忘记密码