歌手头像-Beyond

Amani (solo)

1 2 3 4 5
x

音乐人: Beyond

供谱者:mix
   Amani (solo) - Beyond

   |-----------------------------------------------8---------------------------13----|
   |---------------------------------------------8---8-------------------------------|
   |--7^-7-5-7-7^--------------5---7---7^---7/9---------10-9-10-12-------12/14----14-|
   |--------------5-7-5~-5-1/5---5---5-----------------------------10-10-------------|
   |---------------------------------------------------------------------------------|
   |---------------------------------------------------------------------------------|

   |---------------------------------------------------------------------------------|
   |------------------------------------------------------------------------------10-|
   |--10-9-10-12--------------------------------------------------9-------9-10-12----|
   |------------------------------9-------9-10----9-10-12-9-10-12---10-12------------|
   |-------------10-12-10~--10-12---10-12------12------------------------------------|
   |---------------------------------------------------------------------------------|

   |-----------12-13-15-12p13-12--------15-12-13----12-------------------------------|
   |--12-13-15-----------------------13----------15---13-15-12-13----12--------------|
   |------------------------------12------------------------------14----12h14--------|
   |---------------------------------------------------------------------------------|
   |---------------------------------------------------------------------------------|
   |---------------------------------------------------------------------------------|

   |---------------------------------------------------------------------------------|
   |---------------------------------------------------------------------------------|
   |-----12-------10------9------7-5-4-5-7-5-4-5-------------------------------------|
   |--10-----109-----97----75-----------------------------------------------------|
   |---------------------------------------------------------------------------------|
   |---------------------------------------------------------------------------------|
添加到谱单
X

添加到谱单

《 Amani (solo) -- Beyond 》加入
◎ 选择已有谱单 创建新的

公开 (默认不公开,欢迎创建有意思的"公开谱单")

创建取消

推荐语(选填)

X

请先登录chord4


忘记密码