歌手头像-Beyond

誰伴我闖蕩

1 2 3 4 5
x

音乐人: Beyond

供谱者:mix
   誰伴我闖蕩 (91 Live) - Beyond

   *Use the Acoustic Guitar

   "Ka Kui use the Ovation Acoustic Guitar
    to play this song in Live 91"

   Intro:
               Am              F
   |--------------------------7-8-7---------|
   |--------------------------------10------|
   |------5-7-7/9-9-7-9~--7-9----------10~--|
   |--7-9-----------------------------------|
   |----------------------------------------|
   |----------------------------------------|
       Am                     D
   |----------------------------------------|
   |--8h10-------------------8-7-7h8p7h8p7--|
   |-------9-----------6-7-9----------------|
   |---------10-9-10~-----------------------|
   |----------------------------------------|
   |----------------------------------------|
           F                  G                        Am
   |--5-5-5-7-8-7-5-7-8--7-7-7-8-10-8-7-8-10--|--8-10------|
   |------------------------------------------|-------10~--|
   |------------------------------------------|------------|
   |------------------------------------------|------------|
   |------------------------------------------|------------|
   |------------------------------------------|------------|

   Verse 1:
   |Am   D   |F   G   |C   E   |
   |Am   D   |F   G   |C   E   |

   Verse 2:
   |Dm   Am   |F   G   |E       |

   Chorus:
   |C   G   |Em   F   |F   G   |Am   G   |
   |C   G   |Em   F   |F   G   |Am   G   |

   Solo:
   |Am   D   |F   G   |Am   D   |F   G   |

   Ending:
   Repeat the Chorus until fade out!
   Last play the C chord!
添加到谱单
X

添加到谱单

《 誰伴我闖蕩 -- Beyond 》加入
◎ 选择已有谱单 创建新的

公开 (默认不公开,欢迎创建有意思的"公开谱单")

创建取消

推荐语(选填)

X

请先登录chord4


忘记密码