歌手头像-Beyond

遙望

1 2 3 4 5
x

音乐人: Beyond

供谱者:mix
遙望 - Beyond

Intro

guitar 1 (repeat 8 times)
    F#m7                                   Dmaj7
e |--------------------------------------|--------------------------------------|
B |-------2--------2---------2--------(2)|-------2--------2---------2-------(4)-|
G |--------------------------------------|--------------------------------------|
D |---2-4------2-4-------2-4-------2-4---|---2-4------2-4-------2-4------2-4----|
A |-4--------4---------4---------4-------|-5--------5---------5--------5--------|
E |--------------------------------------|--------------------------------------|

guitar 2
    F#m7                                   Dmaj7
e |--------------------------------------|--------------------------------------|
B |--------------------------------14-17-|-17/19-17-------14~~~~~~--------------|
G |-----------------------------16-------|---------16---------------------------|
D |--------------------------------------|--------------------------------------|
A |--------------------------------------|--------------------------------------|
E |--------------------------------------|--------------------------------------|

    F#m7                                   Dmaj7
e |--------------------------------------|-----------------------------------14-|
B |--------------------------------14-17-|-17/19-17-------14~~~~~~------14-17---|
G |-----------------------------16-------|---------16----------------16---------|
D |--------------------------------------|--------------------------------------|
A |--------------------------------------|--------------------------------------|
E |--------------------------------------|--------------------------------------|

    F#m7                                   Dbmaj7(guitar 1 stop playing in this bar)
e |--------------------------14-17-17/19-|-17~~~~-------------------------------|
B |-17~~~------------------17------------|--------------------------------------|
G |--------------------------------------|--------------------------------------|
D |--------------------------------------|--------------------------------------|
A |--------------------------------------|--------------------------------------|
E |--------------------------------------|--------------------------------------|

    Aadd9
e |---------0---------------0---------|
B |-------2---2---2-------2---2---2---|
G |-----4-------4-------4-------4-----|
D |---2---------------2---------------|
A |-0---------------0-----------------|
E |-----------------------------------|

Verse 1

guitar 1

    Aadd9
e |---------0---------------0---------|
B |-------2---2---2-------2---2---2---|
G |-----4-------4-------4-------4-----|
D |---2---------------2---------------|
A |-0---------------0-----------------|
E |-----------------------------------|  Repeat this 3 times

    Bm
e |-----------------|
B |---------3-----3-|
G |-----4-------4---|
D |---4---4---4-----|
A |-2---------------|
E |-----------------|  Repeat this 5 times

Repeat verse 1

verse 2

guitar 1

    Aadd9                               Bm              E
e |---------0---------------0---------|---------2----------------0--------|
B |-------2---2---2-------2---2---2---|-------3---3------------0---0------|
G |-----4-------4-------4-------4-----|-----4-------4--------1-------1----|
D |---2---------------2---------------|---4-----------4----2-----------2--|
A |-0---------------0-----------------|-2---------------------------------|
E |-----------------------------------|------------------0----------------|

    Aadd9   C#m     F#m                 Bm               E7
e |-----------------------2-----------|---------2----------------0--------|
B |-----2-------5-------2---------2---|-------3---3------------0---0------|
G |---4---4---6---6---2-------------2-|-----4-------4--------1-------1----|
D |-----------------------------------|---4-----------4----0-----------0--|
A |-0-------4-------------------------|-2---------------------------------|
E |-----------------2-----------------|------------------0----------------|
s
    Aadd9
e |---------0---------------0---------|
B |-------2---2---2-------2---2---2---|
G |-----4-------4-------4-------4-----|
D |---2---------------2---------------|
A |-0---------------0-----------------|
E |-----------------------------------|

Repeat verse 1 two times

verse 3

guitar 1

    Aadd9                               Bm              E
e |---------0---------------0---------|---------2----------------0--------|
B |-------2---2---2-------2---2---2---|-------3---3------------0---0------|
G |-----4-------4-------4-------4-----|-----4-------4--------1-------1----|
D |---2---------------2---------------|---4-----------4----2-----------2--|
A |-0---------------0-----------------|-2---------------------------------|
E |-----------------------------------|------------------0----------------|

    Aadd9   C#m       F#m                           Bm               E7
e |-----------------|-------2--------2-------------|---------2----------------0--------|
B |-----2-----5---5-|-----2-2----------2-------2---|-------3---3------------0---0------|
G |---4---4-----6---|---2---2------------4-------2-|-----4-------4--------1-------1----|
D |-----------------|-------4--------------4-------|---4-----------4----0-----------0--|
A |-0-------4-------|-------4----------------------|-2---------------------------------|
E |-----------------|-2-----2----------------------|------------------0----------------|

    Aadd9           E7
e |---------0---------------0--------|
B |-------2---2---2-------0---0------|
G |-----4-------4-------1-------1----|
D |---2---------------0-----------0--|
A |-0---------------0----------------|
E |----------------------------------|

Chorus

Guitar 1

    A           E            F#m         E            D           E
e |-0--0--0--0--0--0--0--0-|-2--2--2--2--0--0--0--0-|-2--2--2--2--0--0--0--0-|
B |-2--2--2--2--0--0--0--0-|-2--2--2--2--0--0--0--0-|-3--3--3--3--0--0--0--0-|
G |-2--2--2--2--1--1--1--1-|-3--3--3--3--1--1--1--1-|-2--3--3--3--1--1--1--1-|
D |-2--2--2--2--2--2--2--2-|-4--4--4--4--2--2--2--2-|-0--0--0--0--2--2--2--2-|
A |-0--0--0--0--2--2--2--2-|-4--4--4--4--2--2--2--2-|-------------2--2--2--2-|
E |-------------0--0--0--0-|-2--2--2--2--0--0--0--0-|-------------0--0--0--0-|

    A           E7           A           E            F#m         E
e |-0--0--0--0--0--0--0--0-|-0--0--0--0--0--0--0--0-|-2--2--2--2--0--0--0--0-|
B |-2--2--2--2--0--0--0--0-|-2--2--2--2--0--0--0--0-|-2--2--2--2--0--0--0--0-|
G |-2--2--2--2--1--1--1--1-|-2--2--2--2--1--1--1--1-|-3--3--3--3--1--1--1--1-|
D |-2--2--2--2--0--0--0--0-|-2--2--2--2--2--2--2--2-|-4--4--4--4--2--2--2--2-|
A |-0--0--0--0--2--2--2--2-|-0--0--0--0--2--2--2--2-|-4--4--4--4--2--2--2--2-|
E |-------------0--0--0--0-|-------------0--0--0--0-|-2--2--2--2--0--0--0--0-|

    D           E7
e |-2--2--2--2--0--0--0--0-|
B |-3--3--3--3--0--0--0--0-|
G |-2--3--3--3--1--1--1--1-|
D |-0--0--0--0--0--0--0--0-|
A |-------------2--2--2--2-|
E |-------------0--0--0--0-|

Middle Solo:

Guitar 1
   Aadd9                 Em                             Aadd9
e|-0-----------------0-|-------0------0------0------0-|-------2------2------2------2-|
B|-2--------------2----|-----0------0------0------0---|-----4------4------4------4---|
D|-4-----------4-------|---0------0------0------0-----|---2------2------2------2-----|
G|-2--------2----------|-2------2------2------2-------|-0------0------0------0-------|
A|-0-------------------|------------------------------|------------------------------|
E|---------------------|------------------------------|------------------------------|

Guitar 2
   Aadd9                 Em                             Aadd9
e|---------------------|------------------------------|------------------------------|
B|---------------------|------------------------------|-------------------------10-9-|
D|---------------------|-9~-----9~-----9~-----9~------|-6~---6/9~-----9~------9------|
G|---------------------|------------------------------|------------------------------|
A|---------------------|------------------------------|------------------------------|
E|---------------------|------------------------------|------------------------------|

guitar 1
   Em                             Aadd9
e|-------0------0------0------0-|-------2------2------2------2-|
B|-----0------0------0------0---|-----4------4------4------4---|
D|---0------0------0------0-----|---2------2------2------2-----|
G|-2------2------2------2-------|-0------0------0------0-------|
A|------------------------------|------------------------------|
E|------------------------------|------------------------------|

guitar 2
   Em                             Aadd9
e|------------------------------|------------------------------|
B|------------------------------|------------------------------|
D|-9-9~---9~-----9~-----9~------|-9~-----9~-----9~----16-14-16-|
G|------------------------------|------------------------------|
A|------------------------------|------------------------------|
E|------------------------------|------------------------------|

guitar 1
   Aadd9               Aadd9               Aadd9               Aadd9
e|-------------------|-------------------|-------------------|----------------------|
B|----4---4---4---4--|----4---4---4---4--|----4---4---4---4--|----4---4---4---4-----|
D|---2---2---2---2---|---2---2---2---2---|---2---2---2---2---|---2---2---2---2------|
G|--0---0---0---0----|--0---0---0---0----|--0---0---0---0----|--0---0---0---0-------|
A|-0---0---0---0-----|-0---0---0---0-----|-0---0---0---0-----|-0---0---0---0--------|
E|-------------------|-------------------|-------------------|----------------------|

guitar 2
   Aadd9               Aadd9               Aadd9               Aadd9
e|-------------------|-------------------|-------------------|-------------------14-|
B|-14~-----14-17-17/19-17----14~---------|-14~------14-17-17/19-17--14~-----14-17---|
G|-------16----------|----16-------14-16-|--------16---------|----16------16--------|
D|-------------------|----------/16------|-------------------|----------------------|
A|-------------------|-------------------|-------------------|----------------------|
E|-------------------|-------------------|-------------------|----------------------|

guitar 1
   Aadd9              Bm(add distortion)               E                E
e|------------------|---------------|----------------|----------------|----------------|
B|----4---4---4---4-|---------------|----------------|----------------|----------------|
D|---2---2---2---2--|---------------|----------------|-9---9----------|-9---9----------|
G|--0---0---0---0---|-9---9---------|-9---9----------|-9---9----------|-9---9----------|
A|-0---0---0---0----|-9---9---------|-9---9----------|-7---7----------|-7---7----------|
E|------------------|-7---7---------|-7---7----------|----------------|----------------|

Guitar 2
   Aadd9              Bm                                       E              E
e|-------------17-19|-17~----21-21-19-19-17-17----|-----------|---------14---|---------|
B|-17~----17-19-----|-------------------------19~~~--------14-|-17~-------14-|17~------|
G|------------------|-----------------------------|-----16----|--------------|---------|
D|------------------|-----------------------------|-----------|--------------|---------|
A|------------------|-----------------------------|-----------|--------------|---------|
E|------------------|-----------------------------|-----------|--------------|---------|

    A
e |----------------5--x--5--5--|
B |----------------5--x--5--5--|
G |----------------6--x--6--6--|
D |----------------7--x--7--7--|
A |----------------7--x--7--7--|
E |----------------5--x--5--5--|

Repeat Chorus

    Aadd9
e |---------0---------------0---------|
B |-------2---2---2-------2---2---2---|
G |-----4-------4-------4-------4-----|
D |---2---------------2---------------|
A |-0---------------0-----------------|
E |-----------------------------------|

guitar 1
    Aadd9
e |---------0---------------0---------|---------0---------------0---------|
B |-------2---2---2-------2---2---2---|-------2---2---2-------2---2---2---|
G |-----4-------4-------4-------4-----|-----4-------4-------4-------4-----|
D |---2---------------2---------------|---2---------------2---------------|
A |-0---------------0-----------------|-0---------------0-----------------|
E |-----------------------------------|-----------------------------------|

guitar 2
    Aadd9
e |-----------------------------------|-----------------------------------|
B |-----------------------------------|----14^~~--------------------------|
G |-----------------------------------|-----------------------------------|
D |-----------------------------------|-----------------------------------|
A |-----------------------------------|-----------------------------------|
E |-----------------------------------|-----------------------------------|
添加到谱单
X

添加到谱单

《 遙望 -- Beyond 》加入
◎ 选择已有谱单 创建新的

公开 (默认不公开,欢迎创建有意思的"公开谱单")

创建取消

推荐语(选填)

X

请先登录chord4


忘记密码