歌手头像-Beyond

驚喜

1 2 3 4 5
x

音乐人: Beyond

供谱者:mix
 驚喜 Surprise ∼ (Bass Tab)

  Ka Keung use the Zon 4-String Bass in the MTV!

 Intro:
    Em      G         C       D
 ||-------|---------|-------|----------||
 ||-------|---------|-------|----------||
 ||-7-6-7-|-10-8-10-|-------|----------||
 ||-------|---------|-8-7-8-|-10-8-7-8-|| x4

 Verse 1:
    Em      G       C
 ||-------|-------|-------||
 ||-------|-------|-------||
 ||-7/----|-10---|-3/----||
 ||-------|-------|-------|| x2

 Bridge: 

 Repeat Intro 1 times

 Verse 1:
   Em      G       C
 ||-------|-------|-------||
 ||-------|-------|-------||
 ||-7/----|-10---|-3/----||
 ||-------|-------|-------|| x2

 Verse 2:
   G                 Bm/F#
 |-----------------|-----------------|
 |-----------------|-----------------|
 |-----------------|-----------------|
 |-3-3-3-3-3-3-3-3-|-2-2-2-2-2-2-2-2-|
    C                 C
  |-----------------|-----------------|
  |-----------------|-----------------|
  |-3-3-3-3-3-3-3-3-|-3-3-3-3-3-3-3-3-|
  |-----------------|-----------------|
   Bm                Bm
 |-----------------|-----------------|
 |-----------------|-----------------|
 |-2-2-2-2-2-2-2-2-|-2-2-2-2-2-2-2-2-|
 |-----------------|-----------------|
    C                 C
 |-----------------|-----------------|
 |-----------------|-----------------|
 |-3-3-3-3-3-3-3-3-|-3-3-3-3-3-3-3-3-|
 |-----------------|-----------------|

 Chorus:
    G                     Bm 
 ||---------------------|---------------------|
 ||---------------------|------------------4-|
 ||------------------5-|-2-2-1h2--2-2-1h2----|
 ||-3-3-2/3--3-3-2/3----|---------------------|
   C                     D
 |---------------------|------------------------||
 |------------------5-|------------------5/75-||
 |-3-3/5-3--3-3/5-3----|-5-5-4h5--5-5-4h5-------||
 |---------------------|------------------------|| x2

 Bridge: Repeat Intro 2 times

 Repeat: Verse 1, Verse 2, Chorus

 Solo:
    C                 C                 D                 D
 ||-----------------|-----------------|-----------------|-----------------||
 ||-----------------|-----------------|-----------------|-----------------||
 ||-3-3-3-3-3-3-3-3-|-3-3-3-3-3-3-3-3-|-5-5-5-5-5-5-5-5-|-5-5-5-5-5-5-5-5-||
 ||-----------------|-----------------|-----------------|-----------------|| x4

 Chorus:
    G                     Bm 
 ||---------------------|---------------------|
 ||---------------------|------------------4-|
 ||------------------5-|-2-2-1h2--2-2-1h2----|
 ||-3-3-2/3--3-3-2/3----|---------------------|
   C                     D
 |---------------------|------------------------||
 |------------------5-|------------------75/7-||
 |-3-3/5-3--3-3/5-3----|-5-5-4h5--5-5-4h5-------||
 |---------------------|------------------------|| x2

 Ending:

 Repeat Intro 4 times

    Em
  |-------|
  |-------|
  |-7~----|
  |-------|
添加到谱单
X

添加到谱单

《 驚喜 -- Beyond 》加入
◎ 选择已有谱单 创建新的

公开 (默认不公开,欢迎创建有意思的"公开谱单")

创建取消

推荐语(选填)

X

请先登录chord4


忘记密码