歌手头像-Boyz

眼紅館

1 2 3 4 5
x

音乐人: Boyz

供谱者:mix
眼紅館-Boy’z

1|---|---|-----|-----|
2|---|---|-----|---1-|
3|-02|023|---02|0----|
4|3--|---|20---|-33-2|
5|---|---|--3--|-----|
6|---|---|-----|-----|
    愛過的  來合唱 與萬人拍掌  光捧正閃亮 

1|------|-----|----|------|
2|-311--|---1-|----|------|
3|----02|0----|----|--20-0|
4|------|-33-2|-033|33--3-|
5|3-----|-----|3---|------|
6|------|-----|----|------|
  回憶卻更明亮  想到那一夜 場內兩個  鬥過安哥再響

1|---|---|-----|-----|
2|---|---|-----|---1-|
3|-02|023|---02|0---2|
4|3--|---|20---|-33--|
5|---|---|--3--|-----|
6|---|---|-----|-----|
     有過的     成絕唱    我仍然妄想   呼喊夠響亮

1|------|-----|----|-------|
2|-311--|---1-|----|-------|
3|----02|0----|----|--320--|
4|3-----|-33-2|-033|33---33|
5|------|-----|3---|-------|
6|------|-----|----|-------|
        或者再到臺上      不信這一段 難道變了  全無安哥的個唱 

*1|-53|-0---------|-53|-0--------0|
 2|3--|3-311111--1|3--|3-31111123-|
 3|---|--------02-|---|-----------|
 4|---|-----------|---|-----------|
 5|---|-----------|---|-----------|
 6|---|-----------|---|-----------|
  ho...he...ho  哪位當晚吻我說場地冷     ho...he...ho  哪位當晚與我去送玫瑰花 

1|1111156|000035|-----1310-|001353|
2|-------|------|33333----3|------|
3|-------|------|----------|------|
4|-------|------|----------|------|
5|-------|------|----------|------|
6|-------|------|----------|------|
  發覺我正紅著眼  舊座位沒有她 就像盛事未到一次壓軸  就著了燈

1|1111156|00000656531|-1353-0|35311|
2|-------|-----------|3----3-|-----|
3|-------|-----------|-------|-----|
4|-------|-----------|-------|-----|
5|-------|-----------|-------|-----|
6|-------|-----------|-------|-----|
   我信你也紅著眼 寂寞便在紅館中一起呼喊 就算再多的嘈雜 我失戀會喊 

1|---|---|-----|-----|
2|---|---|-----|---1-|
3|-02|023|---02|0----|
4|3--|---|20---|-33-2|
5|---|---|--3--|-----|
6|---|---|-----|-----|
    喊過的  來合唱 會治療創傷  光捧變虛弱

1|------|-----|----|-------|
2|-311--|---1-|----|-------|
3|----02|0----|----|--320--|
4|------|-33-2|-033|33---33|
5|3-----|-----|3---|-------|
6|------|-----|----|-------|
  隨即撇棄途上  戀愛也一樣 還未見過  全年演出的個唱 

Replay*
添加到谱单
X

添加到谱单

《 眼紅館 -- Boyz 》加入
◎ 选择已有谱单 创建新的

公开 (默认不公开,欢迎创建有意思的"公开谱单")

创建取消

推荐语(选填)

X

请先登录chord4


忘记密码