歌手头像-Kids

玩玩具

1 2 3 4 5
x

音乐人: Kids

供谱者:mix
    玩玩具 - E.kids

    Intro

    -------------------------------------------------------------------------------------------------------------------------------------
    -------------------------------------------------------------------------------------------------------------------------------------
    ---------------6----8----------------------------------------------------------------------------------------------------------------
    ----8----10--------------8/10----10----------------8----8----------------------------------------------------------------------------
    ---------------------------------------11------------11-----------------------------11/13----11----8----6---------8---8-11-----------
    --------------------------------------------------9----------------9----11----13------------------------------------9----------------

    ------------------------------------------------------------------------------------------------------------------------------------
    ------------------------------------------------------------------------------------------------------------------------------------
    ---------------6----8---------------------------------------------------------------------------------------------------------------
    ----8----10--------------8/10----10----------------8----8---------------------------------------------------------------------------
    ---------------------------------------11------------11-----------------------------11/13----11----8----6---------------------------
    --------------------------------------------------9----------------9----11----13-----------------------------9----------------------
添加到谱单
X

添加到谱单

《 玩玩具 -- Kids 》加入
◎ 选择已有谱单 创建新的

公开 (默认不公开,欢迎创建有意思的"公开谱单")

创建取消

推荐语(选填)

X

请先登录chord4


忘记密码