歌手头像-LMF

大懶堂

1 2 3 4 5
x

音乐人: LMF

供谱者:mix
   大懶堂 -  LMF

   Created By : GuitarYou(結他友) and Ar Hau (arhau81@hongkong.com)
   Bass By : 13jazz

   Repeat the same chord :   Em , B 
   x = mute
   % = same

   INTRO

   Bass :
   |:-------------------------------|-----------------------------:|
   |:-------------------------------|-----------------------------:|
   |:-7-------------7-7-7----10--7--|-6----------------------6-9--:|
   |:-------------------------------|----------------7-7-7--------:|

    GUitar 1 :
   |-7---7-7-7---7-7x-7----7h8-7---|--7--7-7-7--7-7x-7-----------|
   |-8---8-8-8---8-8x-8----------8-|--7--7-7-7--7-7x-7---7h8-7---|
   |-9---9-9-9---9-9x-9------------|--8--8-8-8--8-8x-8---------8-|
   |-9---9-9-9---9-9x-9------------|--9--9-9-9--9-9x-9-----------|
   |-------------------------------|-----------------------------|
   |-------------------------------|-----------------------------|

   |-------------------------------|--7--7-7-7--7-7x-7-----------|
   |-------------------------------|--7--7-7-7--7-7x-7-----------|
   |------------%------------------|--8--8-8-8--8-8x-8-----------|
   |-------------------------------|--9--9-9-9--9-9x-9-----------|
   |-------------------------------|-----------------------------|
   |-------------------------------|-----------------------------|

   Guitar 2 :

   |-------------------------------|-----------------------------|
   |-------------------------------|-----------------------------|
   |-------------------------------|-------------------10^10-----|
   |-------------------------------|-----------------------------|
   |-------------------------------|-----------------------------|
   |-------------------------------|-----------------------------|

   V1
   Guitar 1:

   |-7---7-7-7---7-7x-7----7h8-7---|--7--7-7-7--7-7x-7-----------|
   |-8---8-8-8---8-8x-8----------8-|--7--7-7-7--7-7x-7---7h8-7---|
   |-9---9-9-9---9-9x-9------------|--8--8-8-8--8-8x-8---------8-|
   |-9---9-9-9---9-9x-9------------|--9--9-9-9--9-9x-9-----------|
   |-------------------------------|-----------------------------|
   |-------------------------------|-----------------------------| X4

   Guitar 2 :

   |---------------|----------------------|----------------|------------------|
   |-8----------8--|-7-----------------10^|10------------8-|-7----------------|
   |----------9----|----------------------|------------9---|------***---10^10-|
   |---------------|----------------------|----------------|------------------|
   |---------------|----------------------|----------------|------------------|
   |---------------|----------------------|----------------|------------------|
   repeat until ***

   V2

   Guitar 1:

   |-7---7-7-7---7-7x-7----7h8-7---|--7--7-7-7--7-7x-7-----------|
   |-8---8-8-8---8-8x-8----------8-|--7--7-7-7--7-7x-7---7h8-7---|
   |-9---9-9-9---9-9x-9------------|--8--8-8-8--8-8x-8---------8-|
   |-9---9-9-9---9-9x-9------------|--9--9-9-9--9-9x-9-----------|
   |-------------------------------|-----------------------------|
   |-------------------------------|-----------------------------| x15

   ++++++ Repeat V1 +++++++

   V3
   Guitar 2: 用右手手指一直hammer第8 格, 左手手按7

   |--------------|
   |--------------|
   |-7h8p7--------|
   |--------------|
   |--------------|
   |--------------| repeat X times

   V4

   Guitar 1:

   |--------------------------------|
   |-12p13-12-------12--------------|
   |---------14-------14-12--14/16~-|
   |--------------------------------|
   |--------------------------------|
   |--------------------------------|

   |-7---7-7-7---7-7x-7----7h8-7---|--7--7-7-7--7-7x-7-----------|
   |-8---8-8-8---8-8x-8----------8-|--7--7-7-7--7-7x-7---7h8-7---|
   |-9---9-9-9---9-9x-9------------|--8--8-8-8--8-8x-8---------8-|
   |-9---9-9-9---9-9x-9------------|--9--9-9-9--9-9x-9-----------|
   |-------------------------------|-----------------------------|
   |-------------------------------|-----------------------------| repeat x times

   V5

   V1
   Guitar 1:

   |-7---7-7-7---7-7x-7----7h8-7---|--7--7-7-7--7-7x-7-----------|
   |-8---8-8-8---8-8x-8----------8-|--7--7-7-7--7-7x-7---7h8-7---|
   |-9---9-9-9---9-9x-9------------|--8--8-8-8--8-8x-8---------8-|
   |-9---9-9-9---9-9x-9------------|--9--9-9-9--9-9x-9-----------|
   |-------------------------------|-----------------------------|
   |-------------------------------|-----------------------------| X4

   Guitar 2 :

   |-----------------------------|
   |-----------------------------|
   |-------------------10^10-----|
   |-----------------------------|
   |-----------------------------|
   |-----------------------------|

   |---------------|----------------------|----------------|------------------|
   |-8----------8--|-7-----------------10^|10------------8-|-7----------------|
   |----------9----|----------------------|------------9---|------***---10^10-|
   |---------------|----------------------|----------------|------------------|
   |---------------|----------------------|----------------|------------------|
   |---------------|----------------------|----------------|------------------|
   repeat until ***

   Solo

   |--------------|--------------------|--------------------|-----------------|
   |---8-8p7------|--------------7/8---|-7~-----8-8p7-------|------------7/8--|
   |---------9-8--|-9~--------9--------|---------------9-8--|-9~-------9------|
   |--------------|-------7/9----------|--------------------|-----7/9---------|
   |--------------|--------------------|--------------------|-----------------|
   |--------------|--------------------|--------------------|-----------------|

   |---------12-14/15--|14~-14^14----12----|-14~--------14-----|--------------------|
   |-7~---12-----------|----------------12-|--------------15-12|---15-12~-----------|
   |-------------------|-------------------|-------------------|14---------14-12-14-|
   |-------------------|-------------------|-------------------|--------------------|
   |-------------------|-------------------|-------------------|--------------------|
   |-------------------|-------------------|-------------------|--------------------|

   |---------------------------|-----------
   |---------------------------|-----------
   |14~----12-14x-12--14p12----|-----------
   |------------------------14x|-14~-------
   |---------------------------|-----------
   |---------------------------|-----------

   ----------------|----------------------|-12-14-14/15-14~---|
   ----------------|-------------12-13-15-|-------------------|
   ----------11/12-|-11--12-14------------|-------------------|
   -------14-------|----------------------|-------------------|
   -12/14----------|----------------------|-------------------|
   ----------------|----------------------|-------------------|

   --------------------------------------------------|-------------------|
   ----12-13--15-13p12-------------------------------|----------12/13-12-|
   ---------------------14-12----12-11----------11-12|-------------------|
   -14---------------------------------14-13-14------|14~----------------|
   --------------------------------------------------|-------------------|
   --------------------------------------------------|-------------------|

   |---------------|-----------------|----------12-14|-14/15-14-12x---|
   |12~------15-13-|-12~--------15-13|-12-13-15------|----------------|
   |---------------|-----------------|---------------|----------------|
   |---------------|-----------------|---------------|----------------|
   |---------------|-----------------|---------------|----------------|
   |---------------|-----------------|---------------|----------------|

   V1
   想 我都好想好似中?頭獎
   有野唔想做 老細又吹我唔漲
   日日等出糧 無乜野需要緊張
   就係咁o既樣 乜都唔駛撈就至理想
   我都好想好似中?頭獎
   有野唔想做 老細又吹我唔漲
   日日等出糧 無乜野需要緊張
   就係咁o既樣 乜都唔駛撈就至理想

   V2
   今朝擘大眼成日就無所事事
   唔聽收音機 尋晚又打爆?個電視
   唔?衫四圍走 三點幾至起身落樓
   頭髮就一舊舊  ?件老西又要折袖
   有事?我呢 就完全唔知~
   說話講野呢 就語無倫次~
   等我?話你知 我話知你
   明知故問 我係乜都唔會理
   我幻想 日日就乜都唔駛想
   坐?街邊睇D人 來來去去 男男女女
   離離合合 散散聚聚
   想要自由唔一切負累
   我要我要每個人開開心心~
   痛痛快快去尋開心~
   偏偏又要醒返 返到呢個世界
   聽朝又要番工同時間鬥快
   repeat V1

   V3
   (唉…真系前世唔收囉
   租先唔知做錯乜傢伙 生出來D?敢?衰胎
   有工又唔去做 一味掛住玩
   唔餓死我 都餓死你啦…)

   V4
   哎??系人系鬼挨騾仔
   無曬計如果可以停低 獻世都無所出
   (可以俾我有一次無事出返去都市)
   但繫個現實就係唔到你想
   無話你想就想又邊有半斤八兩
   三番四次 定系三心兩意
   又或系一心一意 ?出個意義做人唔容易
   每個人有一個故事 返到呢個城市
   咪又系得個做字

   V5
   想 我都好想好似中?頭獎
   有野唔想做 老細又吹我唔漲
   日日等出糧 無乜野需要緊張
   就係咁o既樣 乜都唔駛撈就至理想
   我都好想好似中?頭獎
   有野唔想做 老細又吹我唔漲
   日日等出糧 無乜野需要緊張
   就係咁o既樣 乜都唔駛撈就至理想
   Solo
添加到谱单
X

添加到谱单

《 大懶堂 -- LMF 》加入
◎ 选择已有谱单 创建新的

公开 (默认不公开,欢迎创建有意思的"公开谱单")

创建取消

推荐语(选填)

X

请先登录chord4


忘记密码