歌手头像-Zen

I Remember You

1 2 3 4 5
x

音乐人: Zen

供谱者:mix
   I Remember You - Zen

   曲/詞﹕黃和興   編﹕Zen

   key D

   Verse 1

          D         Bm        G
   I remember you   迷戀的心未減退  我願一生記取
       A7           D
   從沒再想誰  I still think of you
        Bm        G  F#m Em      D
   留低思想伴給我  願快樂永遠伴我     求空虛思念過

   Intro
   |---------------------------------------------9-9s10s9-7-7----|
   |---------10--7b(1)-------------------------------------------|
   |-6s7s6--9----------9-7-6(1)---6-6(1)-------------------------|
   |----------------------------9--------9---9~------------------|
   |-------------------------------------------------------------|
   |-------------------------------------------------------------|

   |-------------9h12p9----9-------------------------------------|
   |---7h8-10-10--------10---10---10-----------------------------|
   |-9--------------------------9----9-7~--7h9p7--6--6h7--7~-----|
   |-------------------------------------------------------------|
   |-------------------------------------------------------------|
   |-------------------------------------------------------------|

   Verse 2

 D          F#m     Bm
  在鏡裏內看著的我在安睡  爲何一生苦苦的等  始終都告吹
A7   G             D     Em
  從前在路上遇著或望著是多麼好   爲可沒傾訢
       A7
   人就似風突然地遠去 No
 D          F#m     Bm
  沒有妳在靠著的我在安睡  爲何不可講出心中想講的  字句
A7   G             D     Em
  常常獨自在坐著或問著妳心中想   完全沒知道
   A7
   從這一刻妳遠去

          D         Bm        G
   I remember you   迷戀的心未減退  我願一生記取
       A7           D
   從沒再想誰  I still think of you
        Bm        G  F#m Em      D
   留低思想伴給我  願快樂永遠伴我     求空虛思念過
   Em        F#m     G
   妳已再使我   這刻獨自在期待  那美態與親切面龐
   A7
   已遠去不再 Woh

   Solo
   |------------------------------------------------------------|
   |-10b(2)-10b(2)-10~--8p7-7h8p7-------7-10-7b(1/2)------------|
   |------------------------------9-7-9--------------9--7~------|
   |------------------------------------------------------------|
   |------------------------------------------------------------|
   |------------------------------------------------------------|

   |------------------------------------------------------------|
   |------------------------------------------------------------|
   |-----6-6h7p6---6-7-9--11h12-14-12p11----11h12-11------------|
   |-7-9---------9-----------------------14------------14~------|
   |------------------------------------------------------------|
   |------------------------------------------------------------|

   |-15-14-12----9-7--------------------------------------------|
   |----------15-----10-8-7h8-10b(2)-8-7---7s8s7----------------|
   |-------------------------------------9----------------------|
   |------------------------------------------------------------|
   |------------------------------------------------------------|
   |------------------------------------------------------------|

   |------------------------------------------------------------|
   |-------------------------------------22---19----------------|
   |---7h9b(2)-9b(2)d-7h9-9~--16h18h19-22b(2)----21-------------|
   |-9----------------------------------------------------------|
   |------------------------------------------------------------|
   |------------------------------------------------------------|

   |-10-9-10p9-7h9--10~-----------------------------------------|
   |------------------------------------------------------------|
   |------------------------------------------------------------|
   |------------------------------------------------------------|
   |------------------------------------------------------------|
   |------------------------------------------------------------|
   Repeat Verse 1 twice

   h : hammer-on
   p : pulling off
   s : slide
   b : upward bending(number of frets)
   d : downward bending
   ~ : vibration
添加到谱单
X

添加到谱单

《 I Remember You -- Zen 》加入
◎ 选择已有谱单 创建新的

公开 (默认不公开,欢迎创建有意思的"公开谱单")

创建取消

推荐语(选填)

X

请先登录chord4


忘记密码