歌手头像-太極樂隊

留住我吧(solo)

1 2 3 4 5
x

音乐人: 太極樂隊

供谱者:mix
   留住我吧(solo) - 太極

   E-|----------------------------------------------------------------|
   B-|--0---5---7---9---7---5--4h5--7--0------------------------------|
   G-|------------------------------------6---8---9---8---6---6~--4~~-|
   D-|----------------------------------------------------------------|
   A-|----------------------------------------------------------------|
   E-|----------------------------------------------------------------|

   E-|----------------------7~--9^-0----------------------------------|
   B-|--5---7---9---7---5---------------------------------------------|
   G-|----------------------------------------------------------------|
   D-|----------------------------------------------------------------|
   A-|----------------------------------------------------------------|
   E-|----------------------------------------------------------------|
添加到谱单
X

添加到谱单

《 留住我吧(solo) -- 太極樂隊 》加入
◎ 选择已有谱单 创建新的

公开 (默认不公开,欢迎创建有意思的"公开谱单")

创建取消

推荐语(选填)

X

请先登录chord4


忘记密码