歌手头像-亞龍大

天上人間

1 2 3 4 5
x

音乐人: 亞龍大

供谱者:mix
   天上人間 - 亞龍大

   曲: KK   詞: 華

   *  Bm          A           Em7          G     F#
   E-|----2------|-5--3------|-----2-----|-----------------|
   B-|-3------3--|--------3--|-3------3--|-8-----7---------|
   G-|--4----4-4-|-------4-4-|--4----4---|---7-4-----4-7-4-|
   D-|-----------|-----------|-----------|-----------------|
   A-|-----------|-----------|-----------|-----------------|
   E-|-----------|-----------|-----------|-----------------|

      Bm          A           Em7          G     F#
   E-|----2------|-5--3------|-----2-----|-----------------|
   B-|-3------3--|--------3--|-3------3--|-8-----7---------|
   G-|--4----4-4-|-------4-4-|--4----4---|---7-4-----------|
   D-|-----------|-----------|-----------|-----------------|
   A-|-----------|-----------|-----------|-----------------|
   E-|-----------|-----------|-----------|-----------------| *

   Verse 1

       Bm         A
   E-|-2--------|-0--------|
   B-|-3--------|-2--------|
   G-|-4--------|-2--------|
   D-|-4--------|-2--------|
   A-|-2--------|-0--------|
   E-|----------|-0--------|
        痛過愛過   放棄的錯
        痛過愛過   你會經過

       Em7             G     F#
   E-|---------------|--------------------|
   B-|---------------|-8-----7------------|
   G-|---------------|---7-4-----4-7-4/7--|
   D-|---------------|--------------------|
   A-|-2/5-----------|--------------------|
   E-|---------------|--------------------|
           每個生命跌蕩嘆息脆弱
           每個失敗背後會指引路

       Bm         A
   E-|-2--------|-0--------|
   B-|-3--------|-2--------|
   G-|-4--------|-2--------|
   D-|-4--------|-2--------|
   A-|-2--------|-0--------|
   E-|----------|-0--------|
        怨過錯過   腦裏閃過
        怨過錯過   剎那醒覺

       Em7             G     F#
   E-|---------------|--------------------|
   B-|---------------|-8-----7------------|
   G-|---------------|---7-4-----4-7-4----|
   D-|---------------|-----------------5--|
   A-|-2/5-----------|--------------------|
   E-|---------------|--------------------|
           取捨與生存你會怎麼選
           真摰的感情總放你身邊

   Verse 2

       G          E
   E-|-3--------|----------|
   B-|-3--------|----------|
   G-|-4--------|----------|
   D-|-5--------|---2------|
   A-|-5--------|-2------2/|
   E-|-3--------|----------|
     沉溺思憶   人生中點滴

       G          A
   E-|-3--------|----------|
   B-|-3--------|----------|
   G-|-4--------|----------|
   D-|-5--------|----------|
   A-|-5--------|-4-4-4x---|
   E-|-3--------|----------|
        爲何結束生命

   Chorus:

            Bm           F#
   E-|----|------------|-----------|
   B-|----|-7p8p7------|-7p8p7-----|
   G-|--6-|----------6-|-------6---|
   D-|----|------------|-----------|
   A-|----|------------|-----------|
   E-|----|------------|-----------|
      不相信天上人間   誰主宰命間

       A             Em7
   E-|-------------|----------------|
   B-|-7p8p7--5----|-7p8p7----------|
   G-|-------------|---------7------|
   D-|-------------|----------------|
   A-|-------------|----------------|
   E-|-------------|----------------|
        爲護著天付的一點燦爛

            Bm           F#
   E-|----|------------|-----------|
   B-|----|-7p8p7------|-7p8p7-----|
   G-|--6-|----------6-|-------6---|
   D-|----|------------|-----------|
   A-|----|------------|-----------|
   E-|----|------------|-----------|
               誰人可甘心一個自己

       A            F#m
   E-|------------|----------------|
   B-|-7p8p7--5---|-7p8p7----------|
   G-|------------|--------6---6-6-|
   D-|------------|----------------|
   A-|------------|----------------|
   E-|------------|----------------|
        就算我一敗塗地
        但願我不用逃避

      E           Em7
   E|-----------|--------------|
   B|-----------|--------------|
   G|-6/9----9^-|-8------------|
   D|-----------|--------------|
   A|-----------|--------------|
   E|-----------|--------------|
焦急的你    快灑脫地

   Repeat verse 1, verse 2, and chorus

   Repeat (with *)

   Guitar Solo:

   E-|----------------------|--------------------|----------------------|------------------|
   B-|---------5-5p7p5------|-------5-5p7p5------|---------5-5p7p5------|-7-7-7-5----------|
   G-|-7--4-7-----------7-4-|7-4-7-----------7-4-|-7--4-7-----------7-4-|----------7-7-6---|
   D-|----------------------|--------------------|----------------------|------------------|
   A-|----------------------|--------------------|----------------------|------------------|
   E-|----------------------|--------------------|----------------------|------------------|

   E-|----------------------|--------------------|----------------------|------------------|
   B-|---------5-5p7p5------|-------5-5p7p5------|---------5-5p7p5------|-7-7-7-5----------|
   G-|-7--4-7-----------7-4-|7-4-7-----------7-4-|-7--4-7-----------7-4-|----------7-7-6-4-|
   D-|----------------------|--------------------|----------------------|------------------|
   A-|----------------------|--------------------|----------------------|------------------|
   E-|----------------------|--------------------|----------------------|------------------|

   Verse 2

       G          Em7  E F#m
   E-|-3--------|-0---------|
   B-|-3--------|-0---------|
   G-|-4--------|-1----1-2--|
   D-|-5--------|-0----2-4--|
   A-|-5--------|-2----2-4--|
   E-|-3--------|------0-2--|
     沉溺思憶   人生中點滴

       G          A
   E-|-3--------|----------|
   B-|-3--------|----------|
   G-|-4--------|----------|
   D-|-5--------|----------|
   A-|-5--------|-4-4-4x---|
   E-|-3--------|----------|
        爲何結束生命

   Repeat chorus and verse 1
添加到谱单
X

添加到谱单

《 天上人間 -- 亞龍大 》加入
◎ 选择已有谱单 创建新的

公开 (默认不公开,欢迎创建有意思的"公开谱单")

创建取消

推荐语(选填)

X

请先登录chord4


忘记密码