歌手头像-動力火車

那就這樣吧

1 2 3 4 5
x

音乐人: 動力火車

供谱者:mix
   那就這樣吧 - 動力火車

   詞/曲: 阿軒

   |------0-------------0----|
   |------1-------------1----|
   |------0h2-0----0----0----|
   |---3--3------3------2----|
   |-3------------------3----|
   |-------------------------|

   F           Dm  F          Dm            Bb  Bb     C
   |---5/3---5/35----5/3---5/3/13-|-5-6-8-----9--------|
   |-------6--------------6---------|-------6-----6--6/9-|
   |-5--------------5---------------|--------------------|
   |--------------------------------|--------------------|
   |--------------------------------|--------------------|
   |--------------------------------|--------------------|

       F            Dm
 # 不要哭了嗎 該哭的人是我吧
       Bb               C
   你都坦白愛上了他 我有什麼辦法
        F           Dm
   我也同意啦 既然妳提出了想法
       Bb               C          C
   我們不要拖拖拉拉 就從明天開始吧

        F           Dm
   那就這樣吧 再愛都曲終人散啦
       Bb           C
   那就分手吧 再愛都無須掙扎
        F           Dm
   不要再問我 怎捨得拱手讓他
       Bb             C
   你走吧 到了記得要給我通電話
        F           Dm
   那就這樣吧 再愛都要Sayonara
       Bb           C
   再給抱一下 聞一聞你的長髮
        F           Dm
   不要再哭啦 快把眼淚擦一擦
       Bb        C     F
   這樣吧 再愛我 有緣的話
   repeat #

  Am         Dm         Bb      C    F
   快去把東西收拾一下 再耗下去都天亮啦
  Am         Dm           Bb
   這裏的鑰匙你先留著吧 怕你有東西
       Bb          C   C
   假如你有東西忘了拿
添加到谱单
X

添加到谱单

《 那就這樣吧 -- 動力火車 》加入
◎ 选择已有谱单 创建新的

公开 (默认不公开,欢迎创建有意思的"公开谱单")

创建取消

推荐语(选填)

X

请先登录chord4


忘记密码