歌手头像-張學友

來來回回

1 2 3 4 5
x

音乐人: 張學友

供谱者:reecho
編配者: yanhim@hotmail.com&smallfat@hknetmail.com

 = sliding

E|-------------------910--9------------------7|
B|--910--8-7---7-----------10----1012----7---|
G|------------9---7------------11--------7-----|
D|0--------------------------------------------|
A|---------------------------------------------|
E|---------------------------------------------|

E|----7-------------------------------|
B|-10---7-7-6---7--911--7-9-6-7-6----|
G|------------9--------------------9-7|
D|------------------------------------|
A|------------------------------------|
E|------------------------------------|


    D      A      Bm      F#m
有相聚 有分離 還是始終喜歡你
    G       D
明月清風總給我希望
  Em          A
分開終於依然一起

   D       A      Bm      F#m
我等待 我希冀 如像初春的天氣
    G         D
無論天青天陰灑雨灑霧
  Em  A     D
心感覺也會很美

G
來來回回仍念記
  Bm         Em
從前曾陪伴你 浮浮沉沉懷緬
  A            G
多麼似舊影戲   猶猶疑疑來讀你
  Bm         Em
留下紅脣日記 原來從前曾爲我
    A
不多講愛你便生氣

    D
若我知 假設若我知
      G         D
才幾聲愛你導致別離
    Bm    G         A       D
在那天講一千句 我一生也愛著你
    D
在這天 準我在這天
      G         D
彌補表愛意沒有限期
    Bm    G
爲你講 講千億句
    A       D
一生一世也愛你

有相近 有分歧 還是始終癡戀你
明白必須講心裏說話
否則不可能一起

我等待著我希冀
還像初春的天氣
而無論天青抑天陰灑雨灑霧
只想再碰著你
添加到谱单
X

添加到谱单

《 來來回回 -- 張學友 》加入
◎ 选择已有谱单 创建新的

公开 (默认不公开,欢迎创建有意思的"公开谱单")

创建取消

推荐语(选填)

X

请先登录chord4


忘记密码