歌手头像-佚名

Nyan Cat

1 2 3 4 5
x

音乐人: 佚名

供谱者:reecho
NYAN CAT
BPM=142
by hotjike
 
|-14--16-----------------------------------------------------------------------------14-16-11-14-9-11-7-9-7-|
|------------------14-16--14-15-14-12---12--14-15--15-14-12-14-15------------------------------------|
|-------------------------------------------------------------------------------------------------------------------------|
|--------------------------------------------------------------------------------------------------------------------------|
|--------------------------------------------------------------------------------------------------------------------------|
|--------------------------------------------------------------------------------------------------------------------------|

|-11--14--16-11-14-------11--------------------------------10--------------14-----------------------|
|--------------------------14-------12-14-15-14-12-12-14-----12-14-16----14-16-14-12-14-|
|---------------------------------------------------------------------------------------------------------------|
|---------------------------------------------------------------------------------------------------------------|
|---------------------------------------------------------------------------------------------------------------|
|---------------------------------------------------------------------------------------------------------------|

------------|
-12--14-|
-----------|
-----------|
-----------|
-----------|

|-14--16--------------------------------------------------------------------------14-16-11-14-9-11-7-9-7-|
|--------------14-16--14-15-14-12---12--14-15--15-14-12-14-15------------------------------------|
|----------------------------------------------------------------------------------------------------------------------|
|----------------------------------------------------------------------------------------------------------------------|
|----------------------------------------------------------------------------------------------------------------------|
|----------------------------------------------------------------------------------------------------------------------|

|-11--14--16-11-14--------11--------------------------------10--------------14-----------------------|
|--------------------------14--------12-14-15-14-12-12-14-----12-14-16----14-16-14-12-14-|
|----------------------------------------------------------------------------------------------------------------|
|----------------------------------------------------------------------------------------------------------------|
|----------------------------------------------------------------------------------------------------------------|
|----------------------------------------------------------------------------------------------------------------|

--------------------------------------------------------12-11-12-14--------------------------------------12-|
-12--12-12--------12------------12-14-16-12----------------------12--12------------12--------------|
---------------11-13-----11-13------------------------------------------------------11-13--------11------|
-------------------------------------------------------------------------------------------------------------------|
-------------------------------------------------------------------------------------------------------------------|
-------------------------------------------------------------------------------------------------------------------|

-11-9------------------------------------------------------------------------------------|
-------12------------------12----------12----------12-12-14-16-------------------|
-----------11----------11-----11-13-----11-13--------------------13-11-11-13|
---------------13-14--------------------------------------------------------------------|
-------------------------------------------------------------------------------------------|
-------------------------------------------------------------------------------------------|

|-----------------------------------12-11-12-14--------------------------------------------------------------12--|
|-12--12--------------12--------------------------12--12--12--------------12------------12-14-16-12-----|
|-------------11-13--------11---------------------------------------11-13-------11-13-------------------------|
|-----------------------------------------------------------------------------------------------------------------------|
|-----------------------------------------------------------------------------------------------------------------------|
|-----------------------------------------------------------------------------------------------------------------------|

|-11-12-14----------------------------------12-11-9--------------------------------------------------------------------|
|---------------12--12------------12------------------------12-----------------------12--------------12---------------|
|---------------------------11-13--------11------------------------11-------------11-----11-13-----------11-13---|
|-----------------------------------------------------------------------------13--14----------------------------------------|
|------------------------------------------------------------------------------------------------------------------------------|
|------------------------------------------------------------------------------------------------------------------------------|

------------------------------------------------------------------------------12-11-12-14------------|
-12-12-14-16--------------------------12--12------------12----------------------------12--12-|
-----------------------13-11-11-13--------------11-13--------11---------------------------------|
-----------------------------------------------------------------------------------------------------------|
-----------------------------------------------------------------------------------------------------------| 
-----------------------------------------------------------------------------------------------------------|
 
   
添加到谱单
X

添加到谱单

《 Nyan Cat -- 佚名 》加入
◎ 选择已有谱单 创建新的

公开 (默认不公开,欢迎创建有意思的"公开谱单")

创建取消

推荐语(选填)

X

请先登录chord4


忘记密码