歌手头像-伍佰

我的名字

1 2 3 4 5
x

音乐人: 伍佰

供谱者:reecho
曲: 伍佰   
詞: 伍佰
編配者:Solo:KJOVI(dr_kjovi@hotmail.com)
        主曲:懶爬鴻(geniusken@joymail.com)

-------------------------------------------------------------------------------

Intro
e |-------------------|-------------------|-------------------|------------------|
B |-------------------|-------------------|-------------------|------------------|
G |------7------------|-----9----7---5~~~-|---7---5----4------|------------------|
D |------7------------|-------------------|---------------5---|------5---7s9--5--|
A |-------------------|-------------------|-------------------|--5H7-------------|
E |-------------------|-------------------|-------------------|------------------|

e |-------------------|-------------------|-------------------|-------------------|
B |-------------------|-------------------|-------------------|-------------------|
G |-------------------|---7--s7s9-8-7-5---|--7---5--4---------|-------------------|
D |---------5---------|-------------------|------------5------|-------5--7s5------|
A |------7------------|-------------------|-------------------|---5h7-------------|
E |-------------------|-------------------|-------------------|-------------------|
verse1
    G                      Bb                 Em                  D
e |-------------------|-------------------|-------------------|--------2--3--2-----|
B |-------0-----------|--------3----------|--------0----------|------3-------------|
G |-----0-----0-------|------4-----4------|------0-----0------|----2---------------|
D |---0---------------|----4--------------|----2--------------|--0-----------------|
A |-------------------|--2----------------|--2----------------|--------------------|
E |-3-----------------|-------------------|-------------------|--------------------|
    C                   G                    C                     D
e |-------------------|-------------------|-------------------|--------|--3-----|
B |--------1----------|-------0-----------|--------1----------|------3-|--4-----|
G |------0-----0------|-----0-----0-------|------0-----0------|----2---|--3-----|
D |----2--------------|---0---------------|----2--------------|--0-----|--------|
A |--3----------------|-------------------|--3----------------|--------|--------|
E |-------------------|--3----------------|-------------------|--------|--------|
重複Verse 1
然後Fig 1
Fig1
    C                   G                    C                     D
e |-------------------|-------------------|-------------------|--------|------3-|------6-6-6------6-6-6-------|
B |--------1----------|-------0-----------|--------1----------|------3-|----4---|----6-------6----------6-----|
G |------0-----0------|-----0-----0-------|------0-----0------|----2---|--3-----|--5-----------5----------5---|
D |----2--------------|---0---------------|----2--------------|--0-----|--------|-----------------------------|
A |--3----------------|-------------------|--3----------------|--------|--------|-----------------------------|
E |-------------------|--3----------------|-------------------|--------|--------|-----------------------------|
Chorus
    G                   D                    Em
e |-------------------|----------2---------|-------------------|------2-----------|
B |-------0-----------|--------3------3----|--------0----------|--------3---------|
G |-----0-----0-------|------2-------------|------0-----0------|----4-----4-------|
D |---0---------------|----0---------------|----2--------------|---4--------------|
A |-------------------|--------------------|--2----------------|--2---------------|
E |-3-----------------|--------------------|-------------------|------------------|
   Am                    Em                    Am                  Dsus
D
e |-------------------|-------------------|-------------------|--------3--2--0-----|
B |--------1----------|--------0----------|--------1----------|------3-------------|
G |------2-----2------|------0-----0------|------2-----2------|----2---------------|
D |----2--------------|----2--------------|----2--------------|--0-----------------|
A |--0----------------|--2----------------|--0----------------|--------------------|
E |-------------------|-------------------|-------------------|--------------------|
solo
e |-------------------|-------------------|-------------------|--------------------|
B |------------7------|-------------------|-------------------|--------------------|
G |---7---7h9---7s4---|---4s2--0---4s2--0-|------0---2--------|--2--2s4--7---4---7-|
D |-------------------|-------------------|--2----------------|--------------------|
A |-------------------|-------------------|-------------------|--------------------|
E |-------------------|-------------------|-------------------|--------------------|

e |-------------------|-------------------|-------------------|
B |----------8-8------|-------------------|-------------------|
G |--7----9------7-7--|-----7-9-7---------|------7------------|
D |-------------------|---9---------9s7---|--7s9---9s7~~~-----|
A |-------------------|-------------------|-------------------|
E |-------------------|-------------------|-------------------|

Solo結尾部分與開頭類似

G           Bm
花會開 春會來
Em    D
還有期待些什麼
C   Bm
該放的是否已經放手
Am        D
我還要什麼理由

G           Bm
輕輕說 悄悄說
Em    D
微風一樣的輕柔
C Bm
或許也曾經經歷過
Am       D
知道我沒有把握

  G          D              Em            Bm
#我的名字 飛進了雨中 慢慢浮現在我心口
Am    Em           Am         D
請原諒我的無法捉模 因爲我不曾愛過

G           Bm
想忘的 遺忘的
Em   D
總有涌現的時候
C       Bm
該不該讓你來擁抱我
Am        D
我知道我沒把握
   G          D              Em            Bm
# 眼前的你 竟讓我難過 還有溼紅了我眼眸
Am       Em       C        D       G
我要全部放棄全部從頭 因我握的你手 就已經足夠
添加到谱单
X

添加到谱单

《 我的名字 -- 伍佰 》加入
◎ 选择已有谱单 创建新的

公开 (默认不公开,欢迎创建有意思的"公开谱单")

创建取消

推荐语(选填)

X

请先登录chord4


忘记密码