歌手头像-伍佰

挪威的森林

1 2 3 4 5
x

音乐人: 伍佰

供谱者:reecho
詞曲: 吳俊霖
編配者: 結他友 Studio
-----------------------------------------------------------
Key:G

~   = vibrato揉弦
9^9 = Bend and release推絃並歸位
h   = hammer on擊弦
p   = pull off勾弦
/   = slide滑弦

Begining Solo
e|------------------------------|
B|-----(3 times)----------------|
G|----7-9~-9^9-7----------7-----|
D|-7/9----------9---7--7-9-9-7~-|
A|-------------------10---------|
E|------------------------------|

|------------------------------------|
|------------------------------------|
|----7-9~-9^9-7-----7-9~-9-7-----7---|
|-7/9----------9-----9------9-7-9-9~-|
|------------------------------------|
|------------------------------------|

|----------------------------------------------|
|----------------------------------------------|
|--------------------------------7-9-7~--7-7~--|
|-7-9-7/5---7-5-----5-----5-7-7/9---------9----|
|--------------7-5-7-7---7---------------------|
|----------------------------------------------|

Em      Bm
讓我將你心兒摘下
Em      Bm
試著將它慢慢溶化
Em      Bm      Am      D
看我在你心中是否仍完美無瑕

Em          Bm
是否依然爲我絲絲牽掛
Em      Bm
依然愛我無法自拔
Em      Bm      Am      D
心中是否有我未曾到過的地方啊
    G       Bm
那裏湖面總是澄清
    G       Bm
那裏空氣充滿寧靜
    Em      C
雲白明月照在大地
    Am          D
藏著你不願提起的回憶

(藏著你最深處的祕密)
    Em      Bm
你說真心總是可以從頭
Em      Bm
真愛總是可以長久
Em      Bm      Am        D
爲何你的眼神還有孤獨時的落寞
    Em      Bm
是否我只是你一種寄託
Em      Bm
填滿你感情的缺口
Em      Bm      Am        D
心中那片森林何時能讓我停留 
    Em     Bm     Am          Em
或許我 不該問 讓你平靜的心再起漣漪
    C             D
只是愛你的心超出了界線
    C+G     D
我想擁有你的一切
    Em     Bm     Am          Em
應該是 我不該問 不該讓你再將往事重提
C            D         G
只是心中枷鎖 該如何才能解脫

End solo
|--------------------------------------|
|-----------8-7------------------------|
|----7-9~------9-7----7-9~-9-7-----7---|
|-7/9-------------9----9------9-7-9-9--|
|--------------------------------------|
|--------------------------------------|

|----------------------------------------|
|----------------------------------------|
|--------------------------------7-9-7~--|
|-7-9-7/5---7-5-----5-----5-7-7/9--------|
|--------------7-5-7-7---7---------------|
|----------------------------------------|

|------12----------------------------------------|
|----------8-10-8-7-----------------8-7----------|
|----7-------------7--------7-9~-------9-7--7----|
|-7/9---------------9----7h9---------------9-9~---|
|------------------------------------------------|
|------------------------------------------------|

|---------------------------------------------|
|---------------------------------------------|
|---------------------------------------------|
|----------5-5h7-7/9-7-5-7-5-5h7-7/9-7-5-7-5-5/7--|
|-5---5-5h7-7---------------7---------------7-----|
|--5h7-7--------------------------------------|

[Repeat]
|-8/10-8/10-7---7--7--------------|
|----------------10--10-8-10-8-8~-|
|---------------------------------|
|---------------------------------|
|---------------------------------|
|---------------------------------|

|-------------------------------------------|
|-------------------------------------------|
|-7---7-7---7--7----------------------------|
|--7h9---7h9----9-7h9---9-7h9-7--7h9-7---7~-|
|------------------------------10-----10----|
|-------------------------------------------|

|-8/10-8/10-7---7--7--------------|
|----------------10--10-8-10-8-8~-|
|---------------------------------|
|---------------------------------|
|---------------------------------|
|---------------------------------|

|-------5/7---5------------|
|-8-10-8-----8-8-5-8-5-5~--|
|--------------------------|
|--------------------------|
|--------------------------|
|--------------------------|

|---3/2---------------------------------------------|
|------5-3--5h3-3-----------------------------------|
|-4------------4-4-2-2-------0----------------------|
|-------------------5-----5/2--2-----0--------------|
|---------------------------------5/2-2-2-0-0--2-0--|
|------------------------------------------3--------|

|----------------------------------------------|
|----------------------------------------------|
|---------------------7~------------------7~---|
|-2h5-5p2-5/7--7-5-7/9----2-5/7---7-5-7/9------|
|----------------------------------------------|
|----------------------------------------------|

|----------------------------------------------------|
|---------------------------------7------------------|
|--7-9--9-7-9--9-7-9--9-7-9--9-7-9-9-7-7-------------|
|-9-----------------------------------9-9-7-5-5h7-7~-|
|----------------------------------------------------|
|----------------------------------------------------|

|-------------------------------------------|
|-------------------------------------------|
|----7--------------7~----------------------|
|-7/9-9-5/7--7-5-7/9-----2-5/7--7-5-7-------|
|------------------------------------7-7~---|
|-------------------------------------------|

|---------------------------------------------------------|
|---------------------------------------------------------|
|---------------------------------------------------------|
|--5/4-2-----2p0-0----------------------------------------|
|-2-----5-------2----2p0-0---------0-2-2-0-0--------------|
|-----------------------3-----3-0-3-------3----5/7-5/3-3--|
添加到谱单
X

添加到谱单

《 挪威的森林 -- 伍佰 》加入
◎ 选择已有谱单 创建新的

公开 (默认不公开,欢迎创建有意思的"公开谱单")

创建取消

推荐语(选填)

X

请先登录chord4


忘记密码