歌手头像-Bruno Mars

Grenade

1 2 3 4 5
x

音乐人: Bruno Mars

供谱者:reecho
Bruno Mars - Grenade

 Dm      
E|-1-----1-----1---|-1-----1-----1---|
B|---3-----3-----3-|---3-----3-----3-|
G|-----2-----2-----|-----2-----2------|
D|-0---------------|-0-----------------|
A|-----------------|---------------------|
E|-----------------|--------------------|
  Am      
E|-0-----0-----0---|-0-----0-----0---|
B|---1-----1-----1-|---1-----1-----1-|
G|-----2-----2-----|-----2-----2-----|
D|-----------------|-------------------|
A|-0---------------|-0----------------|
E|-----------------|-------------------|
 
Dm
Easy come, easy go, that's just how you live 
   Am
Oh, take, take, take it all but you never give 
Dm
Should've known you was trouble from the first kiss 
       Am         A7
Had your eyes wide open, why were they open?
  Dm
~ Gave you all I had and you tossed it in the trash
    Am
You tossed it in the trash, you did 
  Dm
To give me all your love is all I ever asked
     Bb              A7
'Cause what you don't understand is
         Dm      Bb F
* I'd catch a grenade for ya 
        C       Dm    Bb F
Throw my hand on a blade for ya 
        C      Dm    Bb F
I'd jump in front of a train for ya 
          C    Dm    Bb F C
You know I'd do anything for ya oh oh
      Bb            C
I would go through all this pain 
      F         A7       Dm  C
Take a bullet straight through my brain 
          Bb          A7                  Dm
Yes, I would die for you, baby But you won't do the same
Dm
Black, black, black and blue, beat me 'til I'm numb 
      Am
Tell the devil I said, hey, when you get back to where you're from
Dm
Mad women, bad women, that's just what you are, yeah
     Am                   A7
You'll smile in my face then rip the brakes out my car ~ *
Gm             Dm
If my body was on fire Ooh, you'd watch me burn down in flames
Gm        
You said you loved me, you're a liar'        
        A7                 Dm Bb A7
Cause you never, ever, ever did, baby *
               Am                 Dm
No, you won't do the same You wouldn't do the same
                Am
Ooh, you never do the same No, no, no, no
 
   
添加到谱单
X

添加到谱单

《 Grenade -- Bruno Mars 》加入
◎ 选择已有谱单 创建新的

公开 (默认不公开,欢迎创建有意思的"公开谱单")

创建取消

推荐语(选填)

X

请先登录chord4


忘记密码