歌手头像-Taylor Swift

Blank Space

1 2 3 4 5
x

音乐人: Taylor Swift

供谱者:reecho
STANDARD TUNING w/
CAPO ON 2

This is the version that I like to play. And I do this finger picking pattern throughout. 
Just play the pattern over and over again until it's time to change to the next chord. 
You'll get it as you play.

           G                              Em
e|---------3-------------------------------0--------|
B|---------3-------------------------------0--------|
G|-----0-------0----------------------0--------0----|
D|--------------------------------------------------|
A|--------------------------------------------------|
E|--3------------------------------0----------------|

          Am7                             C
e|---------0-------------------------------0--------|
B|---------1-------------------------------0--------|
G|-----0-------0------------------------1-----1-----|
D|--------------------------------------------------|
A|--0-------------------------------3---------------|
E|--------------------------------------------------|

          D                               Am
e|--------2--------------------------------0--------|
B|--------3--------------------------------1--------|
G|-----2-----2--------------------------2------2----|
D|--0-----------------------------------------------|
A|-----------------------------------0--------------|
E|--------------------------------------------------|

           A                               F#m
e|---------2--------------------------------2-------|
B|---------2--------------------------------2-------|
G|------2-----2--------------------------2-----2----|
D|--------------------------------------------------|
A|---0----------------------------------------------|
E|------------------------------------2-------------|

          Bm
e|---------2------|
B|---------3------|
G|------4-----4---|
D|----------------|
A|----------------|
E|---2------------|


G
 Nice to meet you where you been
                          Em
I can show you incredible things
Magic, madness, heaven sin
Saw you there and I thought
Am7
Oh my God, look at that face
You look like my next mistake
C                          D
Love’s a game, want to plaaaaay?

G
 New money, suit and tie
                          Em
I can read you like a magazine
Ain't it funny rumors fly
And I know you heard about  
Am7
Me so hey, lets be friends
I'm dying to see how this one ends
D
Grab your passport and my hand
C                       D
I can make the bad guys good for a weekend


G                                                        Em
 So it's gonna be forever or it's gonna go down in flames
You can tell me when it's over mmm
                              Am7
If the high was worth the pain
Got a long list of ex-lovers
                           C
They'll tell you I'm insane
                                                       G
Cause you know I love the players and you love the game


(G)
Cause were young and we're reckless
                           Em
We'll take this way too far
It'll leave you breathless, mmm
                    Am
Or with a nasty scar
Got a long list of ex-lovers
                           C
They'll tell you I'm insane  
                          C*mute                       G
But I got a blank space baby and I'll write your name

G
Cherry lips, crystal skies
                            Em
I could show you incredible things
Stolen kisses, pretty lies
                              Am7
You're the king baby I'm your queen
Find out what you want                  
Be that girl for a month
C                          D        G
Wait the worst is yet to come, oh no

(G)                        
Screaming crying perfect storms
                          Em
I can make all the tables turn
Rose garden filled with thorns
Keep you second guessing
      C
Like "Oh my god who is she?"
I get drunk on jealousy
    D
But you'll come back each time you leave
                               C
Cause darlin' I'm a nightmare, dressed like a daydream




G                                                        Em
 So it's gonna be forever or it's gonna go down in flames
You can tell me when it's over, mmm
                              Am
If the high was worth the pain
Got a long list of ex-lovers
                           C
They'll tell you I'm insane
                                                       G
Cause you know I love the players and you love the game



(G)
Cause were young and we're reckless
                           Em
We'll take this way too far
It'll leave you breathless, mmm
                    Am
Or with a nasty scar
Got a long list of ex-lovers
                           C
They'll tell you I'm insane (insane)
                          C*mute
But I got a blank space baby and I'll write your name




G               D
 Boys only want love if it's torture
Em            D
 Don't say I, say I didn't warn you
G               D
 Boys only want love if it's torture
Em
 Don't say I, say I didn't warn you

KEY CHANGE!!

A                                                        F#m
 So it's gonna be forever or it's gonna go down in flames
You can tell me when it's over mmm
                              Bm
If the high was worth the pain
Got a long list of ex-lovers
                           D
They'll tell you I'm insane
                                                       A
Cause you know I love the players and you love the game

(A)
Cause were young and we're reckless
                           F#m
We'll take this way too far
It'll leave you breathless, mmm
                    Bm
Or with a nasty scar
Got a long list of ex-lovers
                           D
They'll tell you I'm insane  
                          D
But I got a blank space baby and I'll write your name


End on A
添加到谱单
X

添加到谱单

《 Blank Space -- Taylor Swift 》加入
◎ 选择已有谱单 创建新的

公开 (默认不公开,欢迎创建有意思的"公开谱单")

创建取消

推荐语(选填)

X

请先登录chord4


忘记密码