歌手头像-David Bowie

Ziggy Stardust Acoustic

1 2 3 4 5
x

音乐人: David Bowie

供谱者:reecho
DAVID BOWIE, ZIGGY STARDUST

Intro:
                                       (I like to play that)
      G           D                            \ /
------3-----------2----3----2----3----2---------0----------------------------------|
------------3----3----3----3----3--------------------------------------------------|
------2----2----2----2----2--------------------------------------------------------|
----------------------------------------------------------------2------------------|
----------------------------------------------------------3------------------------|
-----------------------------------------------------------------------------------|


--------------------------: Play x4 times
--------------------------:
-------0-------0----------:
-----0-------0------------:
---3-------2------0-------:
--------------------------:


Vers:1

  G                     B                          C
Ziggy played guitar, jamming good with Weird and Gilly, The Spiders from

 D                       G                    Em                      Am
Mars. He played it left hand, but made it too far, Became the special man,

                C            G                   B
then we were Ziggy's Band. Ziggy really sang, screwed up eyes and screwed

       C                         D                            G
down hairdo Like some cat from Japan, he could lick 'em by smiling He could

              Em               Am                       C
leave 'me to hang Came on so loaded man, well hung and snow white tan.


Ref:1 Played in barea chords

(on the (FM) release your indexfinger and press it back agian, (listen to the song))


AM       GM              FM          AM    GM            FM
.....So where were the spiders while   the fly tried to break our balls

    AM      GM            FM                D
Just   the beer light to guide us, So we bitched about his fans and should

we
 EM
crush his sweet hands?  Play intro x2


Vers:2
  G                      B                      C
Ziggy played for time, jiving us that we were Voodoo The kids was just

  D                G                  Em                     Am
crass, he was the naz, With God given ass He took it all too far but boy

                C
could he play guitar.


Ref:2 played in Barea chords

 AM          GM           FM   AM        GM        FM
.....Making love with his ego,   Ziggy sucked up into his

      AM         GM       FM            D
mind,    Like a leper messiah When the kids had killed the man I had to

 Em
break up the band.


Then play the intro x4 times


Enjoy!


By: Carl Stare Sweden.
添加到谱单
X

添加到谱单

《 Ziggy Stardust Acoustic -- David Bowie 》加入
◎ 选择已有谱单 创建新的

公开 (默认不公开,欢迎创建有意思的"公开谱单")

创建取消

推荐语(选填)

X

请先登录chord4


忘记密码