歌手头像-Beyond

Amani

1 2 3 4 5
x

音乐人: Beyond

供谱者:reecho
曲: 黃家駒  
詞: 黃家駒   
編配者:Showroom
--------------------------------------------------------------
Key=C  Tempo=4/4

C  G F  C      F   G     C
Amani Nakupenda   Na Kupenda We We

 C      G         .    Am
(祂)主宰世上(一)切     祂的歌唱(出)愛
.    G             C      G
祂的真理(遍)布這地球  (祂)怎麼一去(不)返
.    Am            .    G
祂可否會(感)到         烽煙掩蓋(天)空與未來

.     C          .     G
無助與冰凍(的)眼睛    流淚看天際(帶)悲奮
.    Am         G      F     G
是控訴戰(爭)到最後傷痛是兒(童)   (我)向世界(呼)叫

C  G  F  C      F   G     C   F      C
Amani Nakupenda   Na Kupenda We We  Tuna Taka We We

 C     G         .    Am
(天)天空可見(飛)鳥    驚慌展翅(飛)舞
.    G            C      G
穿梭天際(只)想覓自由 (心)千億顆愛(心)碎
.    Am           .    G
今天一切(厄)困        彷彿真理(消)失在地球

.     C          .      G
無助與冰凍(的)眼睛    流淚看天際(帶)悲奮
.    Am         G       F     G
是控訴戰(爭)到最後傷痛是兒(童)    (我)向世界(呼)叫

C  G  F  C      F   G     C   F      C
Amani Nakupenda   Na Kupenda We We  Tuna Taka We We

.     C           .     G
權力與擁有(的)鬥爭     愚昧與偏見(的)爭鬥
.    Am         G      F     G
若這裏戰(爭)到最後怎會是和(平)    (我)向世界(呼)叫

C  G  F  C      F   G     C   F      C
Amani Nakupenda   Na Kupenda We We  Tuna Taka We We

 F     G
(再)次再次(呼)叫

C  G  F  C      F   G     C   F      C
Amani Nakupenda   Na Kupenda We We  Tuna Taka We We


Solo (扒譜:Steve仔 Email:steve4u@hkbn.net )
*************************************************************************************

x = Right Hand Mute/右手靜音
( ) = Artificial Harmonic/人工泛音

E|-------------------------------------------8------------------------------13------|
B|---------------------------------------------8~-----------------------------------|
G|--7/9~-7-5-7-7^----------------5--(7^)-7/9-------10-9-10-12-10------12/14----12^--|
D|----------------5x-7x-5~---1/5---5-----------------------------10~----------------|
A|----------------------------------------------------------------------------------|
E|----------------------------------------------------------------------------------|

E|----------------------------------------------------------------------------------|
B|------------------------------------------------------------------------------10--|
G|--10-9-10-12--------------------------------------------------9-------9-10-12-----|
D|------------------------------9-------9-10----9-10-12-9-10-12---10-12-------------|
A|-------------10-12-10~--10-12---10-12------12-------------------------------------|
E|----------------------------------------------------------------------------------|

E|--------10-12-13-15-13h12------------15-12-13----12-------------------------------|
B|--12-13-------------------15^-----13----------15---13-15-12-13----12--------------|
G|-------------------------------12------------------------------14----12-14~-------|
D|----------------------------------------------------------------------------------|
A|----------------------------------------------------------------------------------|
E|----------------------------------------------------------------------------------|

E|----------------------------------------------------------------------------------|
B|----------------------------------------------------------------------------------|
G|-----12------10-----9-----7-5-4-5-7-5-4-5~----------------------------------------|
D|--10----109----97---75---------------------------------------------------------|
A|----------------------------------------------------------------------------------|
E|----------------------------------------------------------------------------------|

*************************************************************************************
添加到谱单
X

添加到谱单

《 Amani -- Beyond 》加入
◎ 选择已有谱单 创建新的

公开 (默认不公开,欢迎创建有意思的"公开谱单")

创建取消

推荐语(选填)

X

请先登录chord4


忘记密码