歌手头像-丝袜小姐

我家也有绿油精 (LIVE版)

1 2 3 4 5
x

音乐人: 丝袜小姐

供谱者:reecho
我家也有綠油精(LIVE版譜)
作曲: 小龜   填詞: 小龜   編曲: 絲襪小姐
编配from http://blog.xuite.net/hotblood16/784533/53196172
-------------------------------------------------------------
注意:指法:432 542 421 543(最低弦为1最高弦为6)或直接扫弦
     和弦按法|032000|(最左为最低弦, 最右为最高弦,所有左边为D9和弦)

432     542    421    543
|032000|000020|000200|002200|
小時候我們住過三個地方
每一個都是我的家
不管住在哪裡都一樣
姊姊好不容易當上護士長
明年三月就要結婚啦
讓我有點寂寞害怕
432              542    421    543
|032000  0220000|000020|000200|002200|
我的爸爸
後來就沒有他的消息啦
只是不久前還見過他
孩子氣的又想改行

432              542    421    543
|032000  0220000|000020|000200|002200|
432              542    421    543
|032000  0220000|000020|000200|002200|

432     542    421    543
|032000|000020|000200|002200|
親愛的媽媽
聽我唱歌你怎麼哭了啊
我會健康快樂又堅強
只是還學不會說客家話
432              542    421    543
|032000  0220000|000020|000200|002200|
你說有空要記得回去啊
有些事情就快要來不及啦
要去的地方一不一樣
432     542    421    543
|032000|000020|000200|002200|
可是我的牛仔褲又破了啊
鞋子兩三百年沒洗啦
手裡還拿著香煙啊
432              542    421    543
|032000  0220000|000020|000200|002200|
可是我的頭髮又剪短啦
熬夜好幾天沒睡啦
有沒有更想回去的地方

432     542    421    543
|032000|000020|000200|002200|
oh,dear!I'm so proud,proud of you
whatever it's my family,
nomatter what place they will be

432              542    421    543
|032000  0220000|000020|000200|002200|
oh,dear!I'm so proud,proud of you
whatever it's my family,
nomatter what place I will be

432     542    421    543
|032000|000020|000200|002200|

|032030|012301 330553|
1|------------|
2|--------5---|          X4
3|7-7-7-5---7-|7~~~
4|------------|
5|------------|
6|------------|

1|------------|
2|------------|          X4
3|--------5-57|
4|7-7-5-4-----|
5|------------|
6|------------|

432     542    421    543
|032000|000020|000200|002200|
432              542    421    543
|032000  0220000|000020|000200|002200| 

432     542    421    543
|032000|000020|000200|002200|
432              542    421    543
|032000  0220000|000020|000200|002200|557007|


[Intro]
吉他1
1|7--------------------|7------------------|7-----------------------|--------------------|
2|---------------------|-------------------|------------7-----------|--3-25-3-57-5-7-78-8|
3|--7-6-9-7---79-911-11|--7-6-9-7-7-6-7-9-7|--7-6-9-7-9---9-7----9-7|--------------------|
4|---------------------|-------------------|------------------------|0-------------------|
5|---------------------|-------------------|------------------910---|2-------------------|
6|---------------------|-------------------|------------------------|--------------------|
吉他2
1|---------------------|-------------------|------------------------|--------------------|
2|---------------------|-------------------|------------------------|--------------------|
3|---------------------|-------------------|------------------------|--0---0-------------|
4|------5-4--------0--4|------5-4-------0-4|------4-5--------4-5----|5---4---------------|
5|---------------------|-------------------|------------------------|--------------------|
6|---------------------|-------------------|------------------------|--------------------|

[END]
小提琴
1|------------|
2|--------5---|
3|7-7-7-5---7-| 7~~          X4
4|------------|
5|------------|
6|------------|
吉他
1|------------|
2|------------|          X4
3|--------5-57|
4|7-7-5-4-----|
5|------------|
6|------------|

吉他
1|---------------------|---------------0---|-------------2-----|--------------------|
2|35-57-7--------------|---------2-3-----3-|-----------3---35-5|--------------------|
3|---------------------|-------------2-----|-------------------|--0---0-------------|   
4|---------------------|-------------------|-------------------|5---4---------------|
5|---------------------|-------------------|-------------------|--------------------|
6|---------------------|-------------------|-------------------|--------------------|

1|---------------------|---------------0---|-------------2-----|--------------------|
2|35-57-7--------------|---------2-3-----3-|-----------3---35-5|--------------------|
3|---------------------|-------------------|-------------------|--0---0-------------|
4|---------------------|-------------------|-------------------|5---4---------------|
5|---------------------|-------------------|-------------------|--------------------|
6|---------------------|-------------------|-------------------|--------------------|

小提琴
1|---------------------|-------------------|------------------15-14-15-17~~~|
2|---------------------|-------------------|------------15--17--------------|
3|(7)~~~~--------------|(7)~~~~------------|79-911-12-14--14----------------|
4|---------------------|-------------------|--------------------------------|
5|---------------------|-------------------|--------------------------------|
6|---------------------|-------------------|--------------------------------| 

1|17~~~~~~~------------|17~~~~~~~----------|1717151415-------|1717----------|
2|---------------------|-------------------|-----------------|----17--------|
3|---------------------|-------------------|-----------------|--------14~~~~|
4|---------------------|-------------------|-----------------|--------------|
5|---------------------|-------------------|-----------------|--------------|
6|---------------------|-------------------|-----------------|--------------|
添加到谱单
X

添加到谱单

《 我家也有绿油精 (LIVE版) -- 丝袜小姐 》加入
◎ 选择已有谱单 创建新的

公开 (默认不公开,欢迎创建有意思的"公开谱单")

创建取消

推荐语(选填)

X

请先登录chord4


忘记密码