歌手头像-Beyond

Love

1 2 3 4 5
x

音乐人: Beyond

供谱者:reecho
曲: 葉世榮
編配者:Chris Siu (kakui93@hotmail.com)
--------------------------------------------------------------

G       Em                      C             D
傳來的聲音好熟悉  一個人好像在夢裏  一直在想念妳
G            Em                C              D
遠方的妳不要哭泣 因爲我從來沒故意  傷害了妳的心
Am      C         Em         Em
妳最愛問我  什麼時候可以陪伴著妳
Am      C         D     D            D
妳對我說過  不能入睡  太累  一個人太空虛

 C        G        C        D    Bm
*輕輕的在呼吸  在耳邊  妳是否已陶醉在懷裏
C       G         C   D            G
慢慢長夜裏  擁抱著妳  只想對妳說  I  Love  You...


(96 Live) solo
*****************************************************************************
Middle Solo:
Rhythm : C  Bm  C  Bm  C  Bm...

e |---------------------|--------------------|-----------------------------|
B |-----8-8---8-10/12~~-|--------------------|-----------------------------|
G |-7-9-----9-----------|-^9^9-7---9^9^9-7~~-|-7h9p7-5h7p5-4h5p4---4-------|
D |---------------------|--------9-----------|-------------------7---------|
A |---------------------|--------------------|-----------------------5h7---|
E |---------------------|--------------------|-----------------------------|

e |-x-x-----10-----10--------|-------------------|----------------|
B |-x-x-10^----10^----10^10^-|-8---10^10-8-7h8p7-|----------------|
G |-x-x----------------------|---9---------------|----------7---9-|
D |-x-x----------------------|-------------------|----5-7/9---9---|
A |-x-x----------------------|-------------------|-/7-------------|
E |-x-x----------------------|-------------------|----------------|

*****************************************************************************
Ending Solo:
Rhythm : C  Bm  C  Bm  C  Bm.... until the solo ended

e |--------------------|-------------10--------|---------------------------|
B |-----8-8---8-10/12~-|-----8-8---8----10/12~-|-12-12-^10-8-7---7~--------|
G |-7-9-----9----------|-7-9-----9-------------|---------------9-----------|
D |--------------------|-----------------------|---------------------------|
A |--------------------|-----------------------|---------------------------|
E |--------------------|-----------------------|---------------------------|

e |--------------------------------|---------------------7----7-8-10-10^10-|
B |--------------8-8/7-7-7/5-5-5/3-|-----7-8-7-8-10-8-10---10--------------|
G |----------7-9-------------------|---9-----------------------------------|
D |----5-7/9-----------------------|-9-------------------------------------|
A |-/7-----------------------------|---------------------------------------|
E |--------------------------------|---------------------------------------|

e |-8-7-8-7---------7-|-7-8-10-8-7~-------|--------------------------------|
B |---------10-8-10---|-------------10-10-|-8-7-8-7---7--------------------|
G |-------------------|-------------------|---------9---7-7----------------|
D |-------------------|-------------------|--------------------------------|
A |-------------------|-------------------|--------------------------------|
E |-------------------|-------------------|--------------------------------|

e |-----------------------------|------------7----7----10-8-7-8--7h8p7---|
B |-----------------------------|-----7-8-10---10---10-------------------|
G |-4-5-4-----------------------|---9------------------------------------|
D |-------5-5/7-7-7/9-9-9-9-9-9-|-9--------------------------------------|
A |-----------------------------|----------------------------------------|
E |-----------------------------|----------------------------------------|

e |-7---------7-|-7----------7----7----10-8-7-8-7h8p7-7---------7----------|
B |---10-8-10---|-----7-8-10---10---10------------------10-8-10------------|
G |-------------|---9------------------------------------------------------|
D |-------------|----------------------------------------------------------|
A |-------------|----------------------------------------------------------|
E |-------------|----------------------------------------------------------|

e |-7----------7----7----10-8-7-8-7h8p7-7---------7------------------------|
B |-----7-8-10---10---10------------------10-8-10--------------------------|
G |---9--------------------------------------------------------------------|
D |------------------------------------------------------------------------|
A |------------------------------------------------------------------------|
E |------------------------------------------------------------------------|

e |-7----------7----7----10-8-7-8-7h8p7-7h8p7-7h8p7------------------------|
B |-----7-8-10---10---10---------------------------------------------------|
G |---9--------------------------------------------------------------------|
D |------------------------------------------------------------------------|
A |------------------------------------------------------------------------|
E |------------------------------------------------------------------------|

e |-7-7/10-10/12-12-14-|----15p12----14----15p12----13----12---------------|
B |--------------------|-12-------12----12-------12----12------------------|
G |--------------------|---------------------------------------------------|
D |--------------------|---------------------------------------------------|
A |--------------------|---------------------------------------------------|
E |--------------------|---------------------------------------------------|

e |----15p12----14----15p12----14----15p12----14----15p12----14------------|
B |-12-------12----12-------12----12-------12----12-------12---------------|
G |------------------------------------------------------------------------|
D |------------------------------------------------------------------------|
A |------------------------------------------------------------------------|
E |------------------------------------------------------------------------|

e |----15p12----14----15p12----14----15p12----14-|-15^^^^^---17^^^^^^^-----|
B |-12-------12----12-------12----12-------12----|-------------------------|
G |----------------------------------------------|-------------------------|
D |----------------------------------------------|-------------------------|
A |----------------------------------------------|-------------------------|
E |----------------------------------------------|-------------------------|

e |----------------|-------------------|-----------------------------------|
B |-10^^^^-8-7-8-7-|-----7-8-7---------|-----------------------------------|
G |----------------|---9-------9-7-9^9-|-9-7-5-4---------------------------|
D |----------------|-9-----------------|---------7-5-4-5-7-7/9-9-9~--------|
A |----------------|-------------------|-----------------------------------|
E |----------------|-------------------|-----------------------------------|

e |-------------|-------10----------------|-------------|-------10---------|
B |-----8-8---8-|-----8---10/12-8h10p8-7~-|-----8-8---8-|-----8----10/12---|
G |-7-9-----9---|-7-9---------------------|-7-9-----9---|-7-9--------------|
D |-------------|-------------------------|-------------|------------------|
A |-------------|-------------------------|-------------|------------------|
E |-------------|-------------------------|-------------|------------------|

e |-------------|-------10-------|------------|----------------------------|
B |-----8-8---8-|-----8----10/12-|-12/15~-15^-|-7h8p7-7--------------------|
G |-7-9-----9---|-7-9------------|------------|---------9~-----------------|
D |-------------|----------------|------------|----------------------------|
A |-------------|----------------|------------|----------------------------|
E |-------------|----------------|------------|----------------------------|

*****************************************************************************

添加到谱单
X

添加到谱单

《 Love -- Beyond 》加入
◎ 选择已有谱单 创建新的

公开 (默认不公开,欢迎创建有意思的"公开谱单")

创建取消

推荐语(选填)

X

请先登录chord4


忘记密码