歌手头像-丝袜小姐

我家也有绿油精

1 2 3 4 5
x

音乐人: 丝袜小姐

供谱者:reecho
我家也有绿油精(版本2)
作曲:小龟  作词:小龟 编曲:丝袜小姐
全曲不断重复如下四个和弦:

D9                                         Bm  
---------------0--------------------0-------------------0------------------0-
------3--------------------3-------------------3------------------3----------
-----------2--------------------2-------------------2-----------------2------
--0--------------------0-----------------------------------------------------
-------------------------------------------2-------------------2-------------
-----------------------------------------------------------------------------
Em7                                        A 
---------------0--------------------0-------------------0------------------0-
------3--------------------3-------------------2------------------2----------
-----------0--------------------0-------------------2-----------------2------
-----------------------------------------------------------------------------
-------------------------------------------0-------------------0-------------
--0------------------0-------------------------------------------------------

小时候我们住过三个地方
每一个都是我的家
不管住在哪里都一样
姊姊好不容易当上护士长
明年三月就要结婚啦
让我有点寂寞害怕
我的爸爸
后来就没有他的消息啦
只是不久前还见过他
孩子气的又想改行

亲爱的妈妈
听我唱歌你怎么哭了啊
我会健康快乐又坚强
只是还学不会说客家话

你说有空要记得回去啊
有些事情就快要来不及啦
要去的地方一不一样

可是我的牛仔裤又破了啊
鞋子两三百年没洗啦
手里还拿着香烟啊
可是我的头发又剪短啦
熬夜好几天没睡啦
有没有更想回去的地方

oh,dear!I'm so proud,proud of you
whatever it's my family,
nomatter what place they will be
oh,dear!I'm so proud,proud of you
whatever it's my family,
nomatter what place I will be

添加到谱单
X

添加到谱单

《 我家也有绿油精 -- 丝袜小姐 》加入
◎ 选择已有谱单 创建新的

公开 (默认不公开,欢迎创建有意思的"公开谱单")

创建取消

推荐语(选填)

X

请先登录chord4


忘记密码