歌手头像-Beyond

1 2 3 4 5
x

音乐人: Beyond

供谱者:reecho
霧 ---- guitar tab #bsp-2

This song's arrangement is simple. But it doesn't mean
that the song is easy to play. It needs great deal of 
muting and other techniques... also, you need to have 
cool flanger or phaser to make it sounds good.

Intro : synth enters first then...

gtr 1 plays the riff with clean sound and phaser or flanger
gtr 2 plays the riff like gtr 1 but with slightly distortion

e |-^-5-------5-------5-----5-|-4-3-------3-------3-----3-|
B |-\-7-----7-------7-----7---|-6-5-----5-------5-----5---|
G |-/-5---5-------5-----------|-4-3---3-------3-----------|
D |-\-7-7-------7-------7-----|-6-5-5-------5-------5-----|
A |---------------------------|---------------------------|
E |---------------------------|---------------------------|
strum slowly and let ring....

e |-4-5-------5-------5-----5-|-4-3-------3-------3-----3-|-4-5--|
B |-6-7-----7-------7-----7---|-6-5-----5-------5-----5---|-6-7--|
G |-4-5---5-------5-----------|-4-3---3-------3-----------|-4-5--|
D |-6-7-7-------7-------7-----|-6-5-5-------5-------5-----|-6-7--|
A |---------------------------|---------------------------|------|
E |---------------------------|---------------------------|------|

verse: Paul's vocal enter first then....

gtr 1

e |--------------------|------------------|-------------------|
B |--------------------|------------------|-------------------|
G |-0------------2-4---|------------------|-0-----------2-4---|
D |-2--------4-5-----0-|--nothing to play |-2-------4-5-----0-|
A |-3--3p2-3---------5-|------------------|-3-3p2-3---------5-|
E |-3------------------|------------------|-3-----------------|

e |--------------------|--------------------|
B |--------------------|--------------------|
G |-nothing to play----|-0----0---0---0-----|
D |--------------------|-2--5---4---2---0h2-|
A |--------------------|-3------------------|
E |--------------------|-3------------------|

chorus:

gtr 1
e |---0-----0-----0-----0---|---0-----0-----0-----0---|
B |-----3-----3-----3-----3-|-----3-----3-----3-----3-|
G |-0-----0-----0-----0-----|-------------------------|
D |-------------------------|-4-----4-----4-----4-----|
A |-------------------------|-------------------------|
E |-------------------------|-------------------------|

e |---0-----0-----0-------|---0-----0-----0-----0---|
B |-----3-----3-----3-----|-----3-----3-----3-----3-|
G |-----------------------|-0-----0-----0-----0-----|
D |-2-----2-----2-----0h2-|-------------------------|
A |-----------------------|-------------------------|
E |-----------------------|-------------------------|

e |---0-----0-----0-----0---|---0-----0-----0-----0---|
B |-----3-----3-----3-----3-|-----3-----3-----3-----3-|
G |-------------------------|-------------------------|
D |-4-----4-----4-----4-----|-2-----2-----2-----2-----|
A |-------------------------|-------------------------|
E |-------------------------|-------------------------|

e |---0-----0-----0---------|------------------------------|
B |-----3-----3-----3-------|-------------------------3--1-|
G |-------------------x-x-x-|-----4-----4-----4-------2--0-|
D |-0-----0-----0-----x-x-x-|-2-2-*-2-2-*-2-2-*-2-2-2------|
A |-------------------------|-*-*---*-*---*-*---*-*-*------|
E |-------------------------|------------------------------|
                              
palm mute all the * notes

e |------------------------------|------------------------------|
B |-------------------------3--1-|-------------------------3--1-|
G |-------------------------2--0-|-----4-----4-----4-------2--0-|
D |-----4-----4-----4------------|-2-2-*-2-2-*-2-2-*-2-2-2------|
A |-2-2-*-2-2-*-2-2-*-2-2-2------|-*-*---*-*---*-*---*-*-*------|
E |-*-*---*-*---*-*---*-*-*------|------------------------------|

e |-----------------------------0-\-|
B |-----------------------------0-/-|
G |-----2-----2-------2---0-----0-\-|
D |-0-0-*-0-0-*-0-0-0-*-0-*-4---2-/-|
A |-*-*---*-*---*-*-*---*---*---2-\-|
E |---------------------------0-2-V-|
                                # back stroke here

repeat intro
repeat verse
then....

e |------------------------------|------------------------------|
B |-------------------------3--1-|-------------------------3--1-|
G |-----4-----4-----4-------2--0-|-------------------------2--0-|
D |-2-2-*-2-2-*-2-2-*-2-2-2------|-----4-----4-----4------------|
A |-*-*---*-*---*-*---*-*-*------|-2-2-*-2-2-*-2-2-*-2-2-2------|
E |------------------------------|-*-*---*-*---*-*---*-*-*------|
                              
e |------------------------------|---------------------------------|
B |-------------------------3--1-|---------------------------------|
G |-----4-----4-----4-------2--0-|-----2-----2-----2-0-0-----------|
D |-2-2-*-2-2-*-2-2-*-2-2-2------|-0-0-*-0-0-*-0-0-*-----4-4-2-2-0-|
A |-*-*---*-*---*-*---*-*-*------|-*-*---*-*---*-*-----------------|
E |------------------------------|---------------------------------|

e |------------------------------|------------------------------|
B |-------------------------3--1-|-------------------------3--1-|
G |-----4-----4-----4-------2--0-|-------------------------2--0-|
D |-2-2-*-2-2-*-2-2-*-2-2-2------|-----4-----4-----4------------|
A |-*-*---*-*---*-*---*-*-*------|-2-2-*-2-2-*-2-2-*-2-2-2------|
E |------------------------------|-*-*---*-*---*-*---*-*-*------|
                              
e |------------------------------|-----------------------------------0-/|
B |-------------------------3--1-|-----------------------------------0-\|
G |-----4-----4-----4-------2--0-|-----2-----2-----2-0-0-------------0-/|
D |-2-2-*-2-2-*-2-2-*-2-2-2------|-0-0-*-0-0-*-0-0-*-----4-4-2-2-0---2-\|
A |-*-*---*-*---*-*---*-*-*------|-*-*---*-*---*-*-------------------2-/|
E |------------------------------|---------------------------------0-0-V|
                                                        back stroke    #
repeat intro

synth solo (arranged for guitar)
* you can emulate it by using overdrive + flanger or chorus
and tone control on guitar all the way up... and reverb.

gtr 1 plays the chorus as background

e |-------------|-------------|------------------|----------------------|
B |-------------|-------------|------------------|-----------7^^^^^-----|
G |-------------|-7h9-7-------|------------------|-------7/2------------|
D |-----5-7/9-9-|-------9-7-9-|-9-8-7-5--7^7-5---|-----5----------------|
A |-5h7---------|-------------|----------------7-|-5-7------------------|
E |-------------|-------------|------------------|----------------------|

solo ends and gtr 1's rhyhtm still 
playing as in the chorus during the second time

then.... ending guitar riffs

e |-----------------------|-----------------------|
B |-----------------------|-----------------------|
G |-----------------------|-----------------------|
D |-5p4--------5p4--------|-5p4-------------------|
A |-----7-5-7------7-5-7--|-----7-5-------5-5-5h7-|
E |-----------------------|-----------5h7---------|

e |-----------------------|-------------------------|
B |-----------------------|-------------------------|
G |-----------------------|-------------------------|
D |-5p4--------5p4--------|-5p4---------------------|
A |-----7-5-7------7-5-7--|-----7-5-------5-5-5-5h7-|
E |-----------------------|-----------5h7-----------|

e |-----------------------|-----------------------|
B |-----------------------|-----------------------|
G |-----------------------|-----------------------|
D |-5p4--------5p4--------|-5p4-------------------|
A |-----7-5-7------7-5-7--|-----7-5-------5-5-5h7-|
E |-----------------------|-----------5h7---------|

e |-----------------------|--------------------------------------|
B |-----------------------|--------------------------------------|
G |-----------------------|---------------------------5-5-5-5h7--|
D |-5p4--------5p4--------|-5p4-------------------5h7------------|
A |-----7-5-7------7-5-7--|-----7-5-------5-5-5-5h7--------------|
E |-----------------------|-----------5h7------------------------|

repeat the above guitar riffs until fade out.

Transcribed by Jan Wong (12-21-1997)

|--------------- the end ---------------|
添加到谱单
X

添加到谱单

《 雾 -- Beyond 》加入
◎ 选择已有谱单 创建新的

公开 (默认不公开,欢迎创建有意思的"公开谱单")

创建取消

推荐语(选填)

X

请先登录chord4


忘记密码