歌手头像-Beyond

想你

1 2 3 4 5
x

音乐人: Beyond

供谱者:reecho
想妳 - Miss You (Live version)

One of my favourites of Beyond's after Ka Kui's death. First appeared in the
96 EP. This tab is the live version in their Live and Basic. Paul has certainly
written a beautiful song with a different style. Lyrics is good too.

Notation:
X -> Not played/彈
x -> Played/不彈
p -> Pull off/拉弦/勾弦
~ -> Vibrato/揉弦
^ -> Bend up/推弦
* -> Mute/靜音

Chords:

Bb |-1-1-3-3-3-1-|
Bbmaj7  |-1-1-3-2-3-1-|
Cm |-3-3-5-5-4-3-|
Dm |-5-5-7-7-6-5-|
Gm |-3-5-5-3-3-3-|
Eb7 |-6-6-8-6-8-6-|
F |-1-3-3-2-1-1-|

:Intro
Repeat this four times
   Cm                Bbmaj7
E |-x-x----x-x--x-x-|-x-x----x-x--x-x-|
B |-x-x----x-x--x-x-|-x-x----x-x--x-x-|
G |-x-x----x-x--x-x-|-x-x----x-x--x-x-|
D |-x-x----x-x--x-x-|-x-x----x-x--x-x-|
A |-x-x----x-x--x-x-|-x-x----x-x--x-x-|
E |-x-x----x-x--x-x-|-x-x----x-x--x-x-|

:Verse 1

   Cm               Bbmaj7            F                  Bb
E |-x-x--x-x-x--x-x-|-x-x--x-x-x--x-x-|-x-x--x-x-x--1---|-x-x----x-x--x-x-|
B |-x-x--x-x-x--x-x-|-x-x--x-x-x--x-x-|-x-x--x-x-x--3p2-|-x-x----x-x--x-x-|
G |-x-x--x-x-x--x-x-|-x-x--x-x-x--x-x-|-x-x--x-x-x--2---|-x-x----x-x--x-x-|
D |-x-x--x-x-x--x-x-|-x-x--x-x-x--x-x-|-x-x--x-x-x--1---|-x-x----x-x--x-x-|
A |-x-x--x-x-x--x-x-|-x-x--x-x-x--x-x-|-x-x--x-x-x--1---|-x-x----x-x--x-x-|
E |-x-x--x-x-x--x-x-|-x-x--x-x-x--x-x-|-x-x--x-x-x--1---|-x-x----x-x--x-x-|

   Cm                Bbmaj7           F                  Bb
E |-x-x--x-x-x--x-x-|-x-x--x-x-x--x-x-|-x-x--x-x-x--1---|-x-x----x-x--x-x-|
B |-x-x--x-x-x--x-x-|-x-x--x-x-x--x-x-|-x-x--x-x-x--3p2-|-x-x----x-x--x-x-|
G |-x-x--x-x-x--x-x-|-x-x--x-x-x--x-x-|-x-x--x-x-x--2---|-x-x----x-x--x-x-|
D |-x-x--x-x-x--x-x-|-x-x--x-x-x--x-x-|-x-x--x-x-x--1---|-x-x----x-x--x-x-|
A |-x-x--x-x-x--x-x-|-x-x--x-x-x--x-x-|-x-x--x-x-x--1---|-x-x----x-x--x-x-|
E |-x-x--x-x-x--x-x-|-x-x--x-x-x--x-x-|-x-x--x-x-x--1---|-x-x----x-x--x-x-|

E |-0---------------|
B |-0---------------|
G |-1---------------|
D |-3---------------|
A |-2---------------|
E |-0---------------|

:Verse 2
Play this once then Chorus

   Eb7               Dm               Cm                 F
E |-x-x--x-x-x--x-x-|-x-x-x-x-x-x-x-x-|-x-x-x-x-x-x-x-x-|-x-x-x--x-x--x-x-|
B |-x-x--x-x-x--x-x-|-x-x-x-x-x-x-x-x-|-x-x-x-x-x-x-x-x-|-x-x-x--x-x--x-x-|
G |-x-x--x-x-x--x-x-|-x-x-x-x-x-x-x-x-|-x-x-x-x-x-x-x-x-|-x-x-x--x-x--x-x-|
D |-x-x--x-x-x--x-x-|-x-x-x-x-x-x-x-x-|-x-x-x-x-x-x-x-x-|-x-x-x--x-x--x-x-|
A |-x-x--x-x-x--x-x-|-x-x-x-x-x-x-x-x-|-x-x-x-x-x-x-x-x-|-x-x-x--x-x--x-x-|
E |-x-x--x-x-x--x-x-|-x-x-x-x-x-x-x-x-|-x-x-x-x-x-x-x-x-|-x-x-x--x-x--x-x-|

E |-1-------1-------|
B |-3-------2-------|
G |-2-------2-------|
D |-1-------1-------|
A |-1-------1-------|
E |-1-------1-------|

:Chorus
Repeat all this first and then back to Intro -> Verse1 -> Verse2 and
the second time Chorus comes, play the first eight bars and then go to
Solo below. When at the end of the song just keep playing the first eight
bars here until music fades out.

   Bb                Bbmaj7            Cm                 F
E |-x-x--x-x-x--x-x-|-x-x--x-x-x--x-x-|-x-x--x-x-x--x-x-|-x-x--x-x-x--1---|
B |-x-x--x-x-x--x-x-|-x-x--x-x-x--x-x-|-x-x--x-x-x--x-x-|-x-x--x-x-x--3p2-|
G |-x-x--x-x-x--x-x-|-x-x--x-x-x--x-x-|-x-x--x-x-x--x-x-|-x-x--x-x-x--2---|
D |-x-x--x-x-x--x-x-|-x-x--x-x-x--x-x-|-x-x--x-x-x--x-x-|-x-x--x-x-x--1---|
A |-x-x--x-x-x--x-x-|-x-x--x-x-x--x-x-|-x-x--x-x-x--x-x-|-x-x--x-x-x--1---|
E |-x-x--x-x-x--x-x-|-x-x--x-x-x--x-x-|-x-x--x-x-x--x-x-|-x-x--x-x-x--1---|

   Bb                Bbmaj7             Cm                F
E |-x-x--x-x-x--x-x-|-x-x--x-x-x--x-x-|-x-x--x-x-x--x-x-|-x-x--x-x-x--x-x-|
B |-x-x--x-x-x--x-x-|-x-x--x-x-x--x-x-|-x-x--x-x-x--x-x-|-x-x--x-x-x--x-x-|
G |-x-x--x-x-x--x-x-|-x-x--x-x-x--x-x-|-x-x--x-x-x--x-x-|-x-x--x-x-x--x-x-|
D |-x-x--x-x-x--x-x-|-x-x--x-x-x--x-x-|-x-x--x-x-x--x-x-|-x-x--x-x-x--x-x-|
A |-x-x--x-x-x--x-x-|-x-x--x-x-x--x-x-|-x-x--x-x-x--x-x-|-x-x--x-x-x--x-x-|
E |-x-x--x-x-x--x-x-|-x-x--x-x-x--x-x-|-x-x--x-x-x--x-x-|-x-x--x-x-x--x-x-|

   Bbmaj7
E |-x---------------|
B |-x---------------|
G |-x---------------|
D |-x---------------|
A |-x---------------|
E |-x---------------|

:Solo
Rhythm guitar plays these chords while lead guitar plays the solo shown below
Then back to Chorus (repeat the first 8 bars) until end

Rhythm:
   Eb                Gm                Eb                Gm
E |-x-x--x-x-x--x-x-|-x-x--x-x-x--x-x-|-x-x--x-x-x--x-x-|-x-x--x-x-x--x-x-|
B |-x-x--x-x-x--x-x-|-x-x--x-x-x--x-x-|-x-x--x-x-x--x-x-|-x-x--x-x-x--x-x-|
G |-x-x--x-x-x--x-x-|-x-x--x-x-x--x-x-|-x-x--x-x-x--x-x-|-x-x--x-x-x--x-x-|
D |-x-x--x-x-x--x-x-|-x-x--x-x-x--x-x-|-x-x--x-x-x--x-x-|-x-x--x-x-x--x-x-|
A |-x-x--x-x-x--x-x-|-x-x--x-x-x--x-x-|-x-x--x-x-x--x-x-|-x-x--x-x-x--x-x-|
E |-x-x--x-x-x--x-x-|-x-x--x-x-x--x-x-|-x-x--x-x-x--x-x-|-x-x--x-x-x--x-x-|

   Eb                Gm                 F                F
E |-x-x--x-x-x--x-x-|-x-x--x-x-x--x-x-|-x-x--x-x-x--x-x-|-x-x--x-x-x--1---|
B |-x-x--x-x-x--x-x-|-x-x--x-x-x--x-x-|-x-x--x-x-x--x-x-|-x-x--x-x-x--3p2-|
G |-x-x--x-x-x--x-x-|-x-x--x-x-x--x-x-|-x-x--x-x-x--x-x-|-x-x--x-x-x--2---|
D |-x-x--x-x-x--x-x-|-x-x--x-x-x--x-x-|-x-x--x-x-x--x-x-|-x-x--x-x-x--1---|
A |-x-x--x-x-x--x-x-|-x-x--x-x-x--x-x-|-x-x--x-x-x--x-x-|-x-x--x-x-x--1---|
E |-x-x--x-x-x--x-x-|-x-x--x-x-x--x-x-|-x-x--x-x-x--x-x-|-x-x--x-x-x--1---|

Lead:
   Eb                Gm                Eb                  Gm
E |-----------------|-----------------|-------------------|-------------------|
B |-----------------|-----------------|-------------------|-------------------|
G |-----------------|-----------------|-------------------|-------------------|
D |---=10^----------|-10h12-----------|-----7h8-7h8h10~---|--7h10p7~----------|
A |-----------------|--------10-10~---|--10---------------|----------8--------|
E |-----------------|-----------------|-------------------|------------8~-----|

   Eb                 Gm                      F                   F
E |------------------|-----------------------|-------------------|-----------------------|
B |------------------|-----------------------|-------------------|--10-------------------|
G |-------------7-8~-|-----------------------|-------------------|-----10----------------|
D |-------7h8h10-----|-16-15-14-13-12-12*12~-|--12p11-10~--------|--------12--------10^--|
A |-7h8h10-----------|-----------------------|-------------------|-----------13p12-------|
E |------------------|-----------------------|-------------------|-----------------------|

It might look difficult but once you get hold of its rhythm it becomes easy.
Have fun.
添加到谱单
X

添加到谱单

《 想你 -- Beyond 》加入
◎ 选择已有谱单 创建新的

公开 (默认不公开,欢迎创建有意思的"公开谱单")

创建取消

推荐语(选填)

X

请先登录chord4


忘记密码