歌手头像-Beyond

缺口

1 2 3 4 5
x

音乐人: Beyond

供谱者:reecho
This is another version of playing 缺口! My first version have slightly easier fingering,
but it doesn't quite have the same sound timbre!! So here is an improved one.
#guitar1 acoustics
#guitar2 clean electric
#guitar3 distorted electric (for the backing power chords) 

INTRO

guitar1 plays the chords indicated
guitar2 plays the notes

    C             Em            Am         G
e |---------|-------------|------------------|
B |---------|-----8-------|------------------|
G |-----4-5-|-7-5---------|-5-7-7^---7^-7^-7-|this last bar uses 3 bends, their
D |-5-7-----|-------9-7-9-|------------------|order is as follows:
A |---------|-------------|------------------|(1), (1), (1.5)
E |---------|-------------|------------------|

    C                 Em        Am             G
e |---------------------------|----------------------------|
B |-------------5-8---8^^-5-5-|----------------------------|
G |---5---7---7---------------|-----4-5-7-7^---5^-4--------|
D |-5---5---5-----------------|-5-7-----------------5-5~~~-|
A |---------------------------|----------------------------|
E |---------------------------|----------------------------|

-----------------------------------------------------------------------------------------
VERSE1(guitar1 only)

    C           Em          F           Am      G
e |-0-0-0-0-0-|-0-0-0-0-0-|-1-1-1-1-1-|-0-0-0-|-3-3-3-|
B |-1-1-1-1-1-|-0-0-0-0-0-|-1-1-1-1-1-|-1-1-1-|-0-0-0-|
G |-0-0-0-0-0-|-0-0-0-0-0-|-2-2-2-2-2-|-2-2-2-|-0-0-0-|
D |-2-2-2-2-2-|-2-2-2-2-2-|-3-3-3-3-3-|-2-2-2-|-0-0-0-|
A |-3-3-3-3-3-|-2-2-2-2-2-|-3-3-3-3-3-|-0-0-0-|-2-2-2-|
E |-----------|-0-0-0-0-0-|-----------|-------|-3-3-3-|

    C           Em          F           Am      G
e |-0-0-0-0-0-|-0-0-0-0-0-|-1-1-1-1-1-|-0-0-0-|-3-3-3-|
B |-1-1-1-1-1-|-0-0-0-0-0-|-1-1-1-1-1-|-1-1-1-|-0-0-0-|
G |-0-0-0-0-0-|-0-0-0-0-0-|-2-2-2-2-2-|-2-2-2-|-0-0-0-|
D |-2-2-2-2-2-|-2-2-2-2-2-|-3-3-3-3-3-|-2-2-2-|-0-0-0-|
A |-3-3-3-3-3-|-2-2-2-2-2-|-3-3-3-3-3-|-0-0-0-|-2-2-2-|
E |-----------|-0-0-0-0-0-|-----------|-------|-3-3-3-|

-----------------------------------------------------------------------------------------
VERSE2

guitar1
    C         D         Am             C         D         F
e |-------0-|-------2-|-0----------0-|-------0-|-------2-|-1-1-1-1-1-|
B |-----1---|-----3---|-1---1-0----1-|-----1---|-----3---|-1-1-1-1-1-|
G |---0-----|---2-----|-2-------2--2-|---0-----|---2-----|-2-2-2-2-2-|
D |---------|-0-------|-2----------2-|---------|-0-------|-3-3-3-3-3-|
A |-3-------|---------|-0----------0-|-3-------|---------|-3-3-3-3-3-|
E |---------|---------|--------------|---------|---------|-----------|

guitar3
e |---------|---------|--------------|---------|---------|-----------|
B |-------3-|-------7-|--------------|---------|---------|-----------|
G |-5---5---|-7---7---|--------------|-5-------|-7-------|-----------|
D |-5-------|-7-7-----|-7------------|-5-------|-7-------|-3---------|
A |-3-------|-5-------|-7------------|-3-------|-5-------|-3---------|
E |---3-----|---------|-5------------|---------|---------|-1---------|

-----------------------------------------------------------------------------------------
CHORUS

guitar1 plays the chords indicated
guitar3 plays as shown

    C         Em        Am        F         C         Em        Am        F
e |---------|---------|---------|---------|---------|---------|---------|---------|
B |---------|---------|---------|---------|---------|---------|---------|---------|
G |-5-------|-4-------|-2-------|---------|-5-------|-4-------|-2-------|---------|
D |-5-------|-4-------|-2-------|-3-------|-5-------|-4-------|-2-------|-3-------|
A |-3-------|-2-------|-0-------|-3-------|-3-------|-2-------|-0-------|-3-------|
E |---------|---------|---------|-1-------|---------|---------|---------|-1-------|

-----------------------------------------------------------------------------------------
BRIDGE

guitar1 plays the chords indicated
guitar2 plays the notes

    C             Em            Am            G  
E |---------|-------------|---------|--------------------------|
B |---------|-----8-------|---------|-15^-15^-15-13-13-----/12-|
G |-----4-5-|-7-5---------|-5-7-7^--|--------------------------|last bar bending order:
D |-5-7-----|-------9-7-9-|---------|--------------------------|(1), (1.5)
A |---------|-------------|---------|--------------------------|
E |---------|-------------|---------|--------------------------|
      
-----------------------------------------------------------------------------------------
VERSE1

guitar1
e |-0-0-0-0-0-|-0-0-0-0-0-|-1-1-1-1-1-|-0-0-0-|-3-3-3-|
B |-1-1-1-1-1-|-0-0-0-0-0-|-1-1-1-1-1-|-1-1-1-|-0-0-0-|
G |-0-0-0-0-0-|-0-0-0-0-0-|-2-2-2-2-2-|-2-2-2-|-0-0-0-|
D |-2-2-2-2-2-|-2-2-2-2-2-|-3-3-3-3-3-|-2-2-2-|-0-0-0-|
A |-3-3-3-3-3-|-2-2-2-2-2-|-3-3-3-3-3-|-0-0-0-|-2-2-2-|
E |-----------|-0-0-0-0-0-|-----------|-------|-3-3-3-|

guitar3
e |-----------|-----------|-----------|-------|----------|
B |-----------|-----------|-----------|-------|----------|
G |-----------|-----------|-----------|-------|----------|
D |-----------|-----------|-----------|-------|----------|
A |-----------|-----------|-----------|-------|-5^-3---3-|this bend is bend and release
E |-----------|-----------|-----------|-------|------5---|

repeat once more for both guitar, but guitar3 plays a pick slide instead for the fill-in

-----------------------------------------------------------------------------------------
VERSE2

guitar1
    C         D         Am             C         D         F
e |-------0-|-------2-|-0----------0-|-------0-|-------2-|-1-1-1-1-1-|
B |-----1---|-----3---|-1---1-0----1-|-----1---|-----3---|-1-1-1-1-1-|
G |---0-----|---2-----|-2-------2--2-|---0-----|---2-----|-2-2-2-2-2-|
D |---------|-0-------|-2----------2-|---------|-0-------|-3-3-3-3-3-|
A |-3-------|---------|-0----------0-|-3-------|---------|-3-3-3-3-3-|
E |---------|---------|--------------|---------|---------|-----------|

guitar3
e |---------|---------|--------------|---------|---------|-----------|
B |---------|---------|--------------|---------|---------|-----------|
G |-5-------|-7-------|-9------------|-5-------|-7-------|-9---------|
D |-5-------|-7-------|-9------------|-5-------|-7-------|-9---------|
A |-3-------|-5-------|-7------------|-3-------|-5-------|-7---------|
E |---------|---------|--------------|---------|---------|-----------|

REPEAT CHORUS

-----------------------------------------------------------------------------------------
SOLO (guitar2 only)

e |-------------------------------|-----------------------|
B |-------------------------------|-----------------------|
G |-----------------------------9-|-----------------------|
D |----------9-------10-12-9-10---|-----------------------|
A |-12-11-12---11-12--------------|-----------------------|
E |-------------------------------|-12-13-12--13-12-10-12-|

e |-------------------------------------------------------------------|
B |-------------------------------------------------------------------|
G |---------------------------------9----9----9-12^-12-10-9-10-9----9-|
D |----------9-------10----9-10--12---10---10--------------------12---|
A |-12-11-12---11-12----12--------------------------------------------|
E |-------------------------------------------------------------------|

e |---------------------------------------------------------|----------|
B |---------------------------------------------------------|----------|
G |-------9-------------------------------------------------|----------|
D |---------------12^^-10-12-12^^^^^-10-9----------10-10----|----------|
A |-10-12---10-12-------------------------12----12-------12-|----------|
E |------------------------------------------12-------------|-8--8-5-8-|

e |------------------------------------------------------|
B |------------------------------------------------------|
G |-/14-12-14-12-14-12-14-12-14-12-14-14-14-14-14-14-17^-|
D |------------------------------------------------------|
A |------------------------------------------------------|
E |------------------------------------------------------|

*this final part only outline the general pattern (I can't count every single note played!)
 so play this until it fits!

-----------------------------------------------------------------------------------------
CHORUS

guitar3
e |-----|-----|-----|-----|------------|
B |-----|-----|-----|-----|------------|
G |-5-5-|-4---|-2---|-----|-5----4---2-|
D |-5-5-|-4---|-2---|-5---|-5----4---2-|
A |-3-3-|-2---|-0---|-5---|-3----2---0-|
E |-----|-----|-----|-3---|------------|

guitar2
e |-----|-----|-----|-----|------------|-------------------------|
B |-----|-----|-----|-----|----8---8---|-------------------------|
G |-----|-----|-----|-----|------------|------7-9-------7-9-10-9-|
D |-----|-----|-----|-----|-10---9---7-|-9-10------9-10----------|
A |-----|-----|-----|-----|------------|-------------------------|
E |-----|-----|-----|-----|------------|-------------------------|

guitar3
e |------------|--------------|--------------------------|---------------|-------|
B |------------|--------------|--------------------------|---------------|-------|
G |-5--4-------|-5-----4------|-5--4-----------------4-5-|----4----------|-------|
D |-5--4--7----|-5-----4----7-|-5--4---7----3--3--3--4-5-|----4------7---|-3-3-3-|
A |-3--2--7----|-3-----2----7-|-3--2---7----3--3--3--2-3-|----2------7---|-3-3-3-|
E |-------5----|------------5-|--------5----1--1--1------|-----------5---|-1-1-1-|

guitar2
e |------------|--------------|--------------------------|-----------|
B |------------|--------------|--------------------------|-----------|
G |-/9-9-------|----12---12---|----12--12^^-12-10-9-10-9-|-7-5-4-----|
D |------12p10-|-10----9----7-|-10-----------------------|-------5/7-|
A |------------|--------------|--------------------------|-----------|
E |------------|--------------|--------------------------|-----------|

guitar3
e |--------------------------------------|
B |--------------------------------------|
G |-5--------4------------------------5--|
D |-5--------4----------7----3--5--7--5--|
A |-3--------2----------7----3--5--7--3--|
E |---------------------5----1--3--5-----|

guitar2
e |------------------------------------|
B |------------8-----------------------|
G |-5-4-5--4-5-------7^^---7^-5-4------|
D |-------------------------------5~~~-|
A |------------------------------------|
E |------------------------------------|


Transcribed by Arnold Fung (22-3-1998)

|--------------- 玩 完 ---------------|

添加到谱单
X

添加到谱单

《 缺口 -- Beyond 》加入
◎ 选择已有谱单 创建新的

公开 (默认不公开,欢迎创建有意思的"公开谱单")

创建取消

推荐语(选填)

X

请先登录chord4


忘记密码