歌手头像-Beyond

长城

1 2 3 4 5
x

音乐人: Beyond

供谱者:reecho
x   == mute
~   == vibrato
^   == bent 
7^7 == bent and release
^+  == bent and don't release
/   == slide
p   == pulling off
H   == hammering on

Intro: ambient feel keyboard playing

   Am      G  D
e |--------------|
B |--------------|
G |-----------7--|
D |--7--7--5--7--|
A |--7--7--5--5--|
E |--5--5--3-----|

verse: use palm mute for the rhythm
   Am       D        Am       D        Am       D
e |-----------------|------------------------|------------------|
B |-----------------|---------------6-5------|------------------|
G |---------7-7-7-7-|---------7-7-x-----7-5~-|---------7-7-7-7--|
D |-7-7-7-7-7-7-7-7-|-7-7-7-7-7-7-x----------|-7-7-7-7-7-7-7-7--|
A |-7-7-7-7-5-5-5-5-|-7-7-7-7-5-5-x----------|-7-7-7-7-5-5-5-5--|
E |-5-5-5-5---------|-5-5-5-5----------------|-5-5-5-5----------|

   Am       D         F       G         Em       Am
e |------------------------|-----------------|------------------|
B |---------------6-5------|-----------------|----3--3/5--------|
G |---------7-7-x-----7-5~-|----2--5--7~-----|-4----------2~----|
D |-7-7-7-7-7-7-x----------|-2---------------|------------------|
A |-7-7-7-7-5-5-x----------|-----------------|------------------|
E |-5-5-5-5----------------|-----------------|------------------|

   F      G           E7
e |------------------|-----------------|
B |------------------|----3--3/5--5~---|
G |----2--5--7~------|-4---------------|
D |-2----------------|-----------------|
A |------------------|-----------------|
E |------------------|-----------------|

two bars with bass and keyboard, no guitar.
then repeat once again.

Chorus: use palm mute for the rhythm
   Am   F        Dm      G        C      Bm    Am   F       G
e |-------------|----------------|----3-----3------|-----------------|
B |-------------|----------------|-1-----0---------|-----------------|
G |-------------|-7-x-7----------|-------------2~--|-----------------|
D |-7---3-3-3-3-|-7-x-7--5-5-5-5-|-----------------|-3-x-3--5-5-5-5--|
A |-7---3-3-3-3-|-5-x-5--5-5-5-5-|-----------------|-3-x-3--5-5-5-5--|
E |-5---1-1-1-1-|--------3-3-3-3-|-----------------|-1-x-1--3-3-3-3--|

                                  C      Bm      Am
fill 1:                          |----7-8----7-8------|
                                 |-10^----10^----10~--|
                                 |--------------------|
                                 |--------------------|
                                 |--------------------|
                                 |--------------------|


   Am   F        Dm      G        C      Bm    Am   F       G
e |-------------|----------------|----3-----3------|-----------------|
B |-------------|----------------|-1-----0---------|-----------------|
G |-------------|-7-x-7----------|-------------2~--|-----------------|
D |-7---3-3-3-3-|-7-x-7--5-5-5-5-|-----------------|-3-x-3--5-5-5-5--|
A |-7---3-3-3-3-|-5-x-5--5-5-5-5-|-----------------|-3-x-3--5-5-5-5--|
E |-5---1-1-1-1-|--------3-3-3-3-|-----------------|-1-x-1--3-3-3-3--|

fill 2: 
  
   Am    F       Dm      G
  |-------------|------------------|
  |-------------|------------------|
  |-------------|--------5---------|
  |------7^5~---|---------7-5-5H7~-|
  |-------------|------------------|
  |-------------|------------------|

   E7            Am    G  D       Am    G  D
e |-------------|----------------|-----------------|
B |-------------|----------------|-----------------|
G |-------------|---------7------|---------7-------|
D |-2-----------|-7-7--5--7------|-7-7--5--7-------|
A |-2-----------|-7-7--5--5------|-7-7--5--5-------|
E |-0-----------|-5-5--3---------|-5-5--3----------|

fill 3
   E7
  |---------15-16~--|
  |------17---------|
  |-----------------|
  |-----------------|
  |-----------------|
  |-----------------|

repeat verse one time and then chorus

Guitar 1: guitar solo
Guitar 2: play the rhythm as the chords indicated below

   Am        G                Am              D 
e |------------------------|-----------------------|
B |------------------------|-----------------------|
G |--7^--7^--7^+--7^+--7^+-|--7^7--5---5-----------|
D |------------------------|---------7---7-6-5-----|
A |------------------------|-------------------7~--|
E |------------------------|-----------------------|

   Am                      F 
e |-------------------------15----------------------|
B |-/12--12-13--12--/12-13-----13-12-13-------------|
G |-------------------------------------14~---------|
D |-------------------------------------------------|
A |-------------------------------------------------|
E |-------------------------------------------------|

   D7
e |-----------------------------12-13-16~-----------|
B |-------------------------------------------------|
G |--------------------13-12-13---------------------|
D |-----------14-13-14------------------------------|
A |--15-14-15---------------------------------------|
E |----------------------------------------12/0-----|


repeat chorus without last two bar (C Bm Am & C Bm Am), 
guitar 2 play the fill-in 1,2 and 3.

then keyboard enter, play artifical harmonics on the second bar:

   Am      D7
e |---------------|
B |---------------|
G |----------(5)--|
D |------(5)------|
A |--(5)----------|
E |---------------|

coda:
   Am      G  D
e |--------------|
B |--------------|
G |-----------7--|
D |--7--7--5--7--|
A |--7--7--5--5--|
E |--5--5--3-----|

Transcribed by Jan Wong (2-20-96)
Special thanks to Ted Ruan 


The Great Wall is one of the best song from Beyond's "....and the revolution continue" album. In the introduction, the ambient sytheizer arrangement is performed by Kitaro, one of the famous Japanese musicians. 
The tempo of the song is about 80,and the key is Am.
Remember, using power chord will give you more crunch.
Enjoy yourself and crank up the volume!

|---------------------- The ---------- End -----------------------------|
添加到谱单
X

添加到谱单

《 长城 -- Beyond 》加入
◎ 选择已有谱单 创建新的

公开 (默认不公开,欢迎创建有意思的"公开谱单")

创建取消

推荐语(选填)

X

请先登录chord4


忘记密码