歌手头像-Beyond

太空

1 2 3 4 5
x

音乐人: Beyond

供谱者:reecho
x= mute
/= slide

Intro I: acoustic guitar and bass

acosutic guitar repeat this two times
       
e |-x-x----------------------|----------------------|
B |-x-x-3-3--3-3-3-3-3-3-3-3-|-1-1--1-1-1-1-1-1-1-1-|
G |-x-x-0-0--0-0-0-0-0-0-0-0-|-0-0--0-0-0-0-0-0-0-0-|
D |-x-x-0-0--0-0-0-0-0-0-0-0-|-0-0--0-0-0-0-0-0-0-0-|
A |-x-x-2-2--2-2-2-2-2-2-2-2-|-2-2--2-2-2-2-2-2-2-2-|
E |-x-x-3-3--3-3-3-3-3-3-3-3-|-3-3--3-3-3-3-3-3-3-3-|

e |-x-x----------------------|----------------------|
B |-x-x-3-3--3-3-3-3-3-3-3-3-|-1-1--1-1-1-1-1-1-1-1-|
G |-x-x-0-0--0-0-0-0-0-0-0-0-|-0-0--0-0-0-0-0-0-0-0-|
D |-x-x-0-0--0-0-0-0-0-0-0-0-|-0-0--0-0-0-0-0-0-0-0-|
A |-x-x-2-2--2-2-2-2-2-2-2-2-|-2-2--2-2-2-2-2-2-2-2-|
E |-x-x-3-3--3-3-3-3-3-3-3-3-|-3-3--3-3-3-3-3-3-3-3-|

overdrive guitar enters at last last bar.

e |--------------------------|-----------10---------|
B |--------------------------|-------8--------8--8--|
G |--------------------------|-----7---7----7--7----|
D |--------------------------|----------------------|
A |--------------------------|----------------------|
E |--------------------------|----------------------|

intro II: acoustic guitar plays the rhythm
          with slightly delayed and reverbed guitar 
          plays the arpeggio          

   G       D/F#     C9      G        G       D/F#     C9      G
e |-3-3-3--2-2-2-2-|-0-0-0--2-2-2-2-|-3-3-3--2-2-2-2-|-0-0-0--2-2-2-2-|
B |-0-0-0--3-3-3-3-|-0-0-0--3-3-3-3-|-0-0-0--3-3-3-3-|-0-0-0--0-0-0-0-|
G |-0-0-0--2-2-2-2-|-0-0-0--2-2-2-2-|-0-0-0--2-2-2-2-|-0-0-0--0-0-0-0-|
D |-0-0-0--0-0-0-0-|-2-2-2--0-0-0-0-|-0-0-0--0-0-0-0-|-2-2-2--0-0-0-0-|
A |-2-2-2--0-0-0-0-|-3-3-3--0-0-0-0-|-2-2-2--0-0-0-0-|-3-3-3--2-2-2-2-|
E |-3-3-3--2-2-2-2-|-0-0-0--2-2-2-2-|-3-3-3--2-2-2-2-|-0-0-0--3-3-3-3-|

e |----------------|----------------|----------------|----------------|
B |-------0--------|-----0-1-0------|-------0--------|-----0-1-0-1/3--|
G |-----0----------|---0-------2-0--|-----0----------|---0------------|
D |---0------------|-0--------------|---0------------|-0--------------|
A |----------------|----------------|----------------|----------------|
E |-3--------------|----------------|-3--------------|----------------|

overdrive guitar
                                    |-----10---------|
                                    |---8------------|
                                    |-7--------------|
                                    |----------------|
                                    |----------------|
                                    |----------------|


Verse 1: acoustic guitar plays rhythm
         delayed and reverbed guitar plays arpeggio
         overdrive guitar plays fill in

e |-3-3-3--2-2-2-2-|-0-0-0--2-2-2-2-|-3-3-3--2-2-2-2-|-0-0-0--2-2-2-2-|
B |-0-0-0--3-3-3-3-|-0-0-0--3-3-3-3-|-0-0-0--3-3-3-3-|-0-0-0--0-0-0-0-|
G |-0-0-0--2-2-2-2-|-0-0-0--2-2-2-2-|-0-0-0--2-2-2-2-|-0-0-0--0-0-0-0-|
D |-0-0-0--0-0-0-0-|-2-2-2--0-0-0-0-|-0-0-0--0-0-0-0-|-2-2-2--0-0-0-0-|
A |-2-2-2--0-0-0-0-|-3-3-3--0-0-0-0-|-2-2-2--0-0-0-0-|-3-3-3--2-2-2-2-|
E |-3-3-3--2-2-2-2-|-0-0-0--2-2-2-2-|-3-3-3--2-2-2-2-|-0-0-0--3-3-3-3-|

                                    |----------------|----------------|
                                    |------0---------|------0-1-0-----|
        delayed and reverbed guitar |----0-----------|----0-------2-0-|
                                    |-0--------------|-0--------------|
                                    |----------------|----------------|
                                    |----------------|----------------|

                                    |-------10-------|-------10-------|
                                    |---8--------8---|---8--------8---|
          overdrive guitar          |-7---7----7-----|-7---7----7-----|
                                    |----------------|----------------|
                                    |----------------|----------------|
                                    |----------------|----------------|


repeat the verse one more time

verse 2: overdirve guitar plays chords 
        and delayed guitar plays arpeggio 

e|----------------|-------------------|----------------|------------------------|----------------|
B|----------------|-------------------|----------------|------------------------|----------------|
G|----------------|-------------------|----------------|---------7-7-7-7-7-7-7-7|-7-7-7-7-7-7-7-7|
D|-7-x-7--7/9-x-9-|-9/3-x-3--3/9-x-9--|-7-x-7--7/9-x-9-|-9/3-x-3-7-7-7-7-7-7-7-7|-7-7-7-7-7-7-7-7|
A|-7-x-7--7/9-x-9-|-9/3-x-3--3/9-x-9--|-7-x-7--7/9-x-9-|-9/3-x-3-5-5-5-5-5-5-5-5|-5-5-5-5-5-5-5-5|
E|/5-x-5--5/7-x-7-|-7/1-x-1--1/7-x-7--|-5-x-5--5/7-x-7-|-7/1-x-1----------------|----------------|

e|--------------------|-----1---------------|--------------------|----------------|--------------|
B|----5---------7-----|-------1-------7-----|-----5---------7----|--------------7-|-------7------|
G|------7---------9---|---------2-------9---|-------7---------9--|------2-----5---|-----5--------|
D|--------7---------9-|-------------------9-|---------7---------9|----3-----7-----|---7----------|
A|--7---------9-------|---3---------9-------|---7---------9------|--3-----5-------|-5------------|
E|5---------7---------|-1---------7---------|-5---------7--------|1---------------|--------------|

chorus:

acoustic guitar

e |-3-3-3--2-2-2-2-|-0-0-0--2-2-2-2-|-3-3-3--2-2-2-2-|-0-0-0--2-2-2-2-|
B |-0-0-0--3-3-3-3-|-0-0-0--3-3-3-3-|-0-0-0--3-3-3-3-|-0-0-0--0-0-0-0-|
G |-0-0-0--2-2-2-2-|-0-0-0--2-2-2-2-|-0-0-0--2-2-2-2-|-0-0-0--0-0-0-0-|
D |-0-0-0--0-0-0-0-|-2-2-2--0-0-0-0-|-0-0-0--0-0-0-0-|-2-2-2--0-0-0-0-|
A |-2-2-2--0-0-0-0-|-3-3-3--0-0-0-0-|-2-2-2--0-0-0-0-|-3-3-3--2-2-2-2-|
E |-3-3-3--2-2-2-2-|-0-0-0--2-2-2-2-|-3-3-3--2-2-2-2-|-0-0-0--3-3-3-3-|

overdrive guitar

e |----------------|----------------|----------------|----------------|
B |----------------|----------------|----------------|----------------|
G |----------------|-----5------5---|----------------|-----5------5---|
D |-5--------------|-x-x-5--x-x-5---|-5--------------|-x-x-5--x-x-5---|
A |-5--------------|-x-x-3--x-x-3---|-5--------------|-x-x-3--x-x-3---|
E |-3--------------|-x-x----x-x-----|-3--------------|-x-x----x-x-----|

delayed and reverbed guitar

e |----------------|----------------|----------------|----------------|
B |-------0--------|-----0-1-0------|-------0--------|-----0-1-0------|
G |-----0----------|---0-------2-0--|-----0----------|---0-------2----|
D |---0------------|-0--------------|---0------------|-0-----------0--|
A |----------------|----------------|----------------|----------------|
E |-3--------------|----------------|-3--------------|----------------|

repeat once again.

bridge: 

e |-3-3-3--2-2-2-2-|-0-0-0--2-2-2-2-|-3-3-3--2-2-2-2-|-0-0-0--2-2-2-2-|
B |-0-0-0--3-3-3-3-|-0-0-0--3-3-3-3-|-0-0-0--3-3-3-3-|-0-0-0--0-0-0-0-|
G |-0-0-0--2-2-2-2-|-0-0-0--2-2-2-2-|-0-0-0--2-2-2-2-|-0-0-0--0-0-0-0-|
D |-0-0-0--0-0-0-0-|-2-2-2--0-0-0-0-|-0-0-0--0-0-0-0-|-2-2-2--0-0-0-0-|
A |-2-2-2--0-0-0-0-|-3-3-3--0-0-0-0-|-2-2-2--0-0-0-0-|-3-3-3--2-2-2-2-|
E |-3-3-3--2-2-2-2-|-0-0-0--2-2-2-2-|-3-3-3--2-2-2-2-|-0-0-0--3-3-3-3-|

e |----------------|----------------|----------------|----------------|
B |-------0--------|-----0-1-0------|-------0--------|-----0-1-0-1/3--|
G |-----0----------|---0-------2-0--|-----0----------|---0------------|
D |---0------------|-0--------------|---0------------|-0--------------|
A |----------------|----------------|----------------|----------------|
E |-3--------------|----------------|-3--------------|----------------|

e |-------10-------|-------10-------|-------10-------|-------10-------|
B |---8--------8---|---8--------8---|---8--------8---|---8--------8---|
G |-7---7----7-----|-7---7----7-----|-7---7----7-----|-7---7----7-----|
D |----------------|----------------|----------------|----------------|
A |----------------|----------------|----------------|----------------|
E |----------------|----------------|----------------|----------------|

verse 1:
repeat the same thing as in bridge

verse 2:
repeat the verse 2 as above

chorus: repeat the chorus as above

bridge 2: overdrive guitar plays the rhythm with palm mute
          delayed and reverbed guitar plays the arpeggio

e |-----------------|-----------------|-----------------|-----------------|
B |-----------------|-----------------|-----------------|-----------------|
G |-----------------|-3-3-3-3-3-3-3-3-|-----------------|-3-3-3-3-3-3-3-3-|
D |-3-3-3-3-3-3-3-3-|-3-3-3-3-3-3-3-3-|-3-3-3-3-3-3-3-3-|-3-3-3-3-3-3-3-3-|
A |-3-3-3-3-3-3-3-3-|-1-1-1-1-1-1-1-1-|-3-3-3-3-3-3-3-3-|-1-1-1-1-1-1-1-1-|
E |-1-1-1-1-1-1-1-1-|-----------------|-1-1-1-1-1-1-1-1-|-----------------|

e |-----------------|---------0-------|-----------------|-----------------|
B |-----------------|-----------1-----|-----------------|-------3-----3---|
G |-----2-----2-----|-----3-------3---|-----2-----2-----|---------3-------|
D |-------3---------|---3---3-------3-|-------3---------|---3-------3-----|
A |---3-----3-------|-1---------------|---3-----3-------|-1---------------|
E |-1---------------|-----------------|-1---------------|-----------------|

e |-----------------|-----------------|-----------------|-----------------|
B |-----------------|-----------------|-----------------|-----------------|
G |-----------------|-3-3-3-3-3-3-3-3-|-----------------|-----------------|
D |-3-3-3-3-3-3-3-3-|-3-3-3-3-3-3-3-3-|-3-3-3-3-3-3-3-3-|-5---------------|
A |-3-3-3-3-3-3-3-3-|-1-1-1-1-1-1-1-1-|-3-3-3-3-3-3-3-3-|-5---------------|
E |-1-1-1-1-1-1-1-1-|-----------------|-1-1-1-1-1-1-1-1-|-3---------------|

e |-----------------|---------0-------|-----------------|-3---------------|
B |-----------------|-----------1-----|-----------------|-3---------------|
G |-----2-----2-----|-----3-------3---|-----2-----2-----|-4---------------|
D |-------3---------|---3---3-------3-|-------3---------|-5---------------|
A |---3-----3-------|-1---------------|---3-----3-------|-5---------------|
E |-1---------------|-----------------|-1---------------|-3---------------|

verse : two acoustic guitar
        one plays G chord all the time
        another plays the following
        (play it two times)
        overdrive guitar fill in at the second time

e |-3-3-x-3-3-|-3-3-x-3-3-|-3-3-x-3-3-|-3-3-x-3-3-|
B |-3-3-x-3-3-|-3-3-x-3-3-|-3-3-x-3-3-|-3-3-x-3-3-|
G |-4-4-x-4-4-|-4-4-x-4-4-|-4-4-x-4-4-|-4-4-x-4-4-|
D |-5-5-x-5-5-|-5-5-x-5-5-|-5-5-x-5-5-|-5-5-x-5-5-|
A |-5-5-x-5-5-|-5-5-x-5-5-|-5-5-x-5-5-|-5-5-x-5-5-|
E |-3-3-x-3-3-|-3-3-x-3-3-|-3-3-x-3-3-|-3-3-x-3-3-|

e |-----------|-----------|----10-------|---------|
B |-----------|-----------|-10----10----|---------|
G |-----------|-----------|----------12-|---------|
D |-----------|-----------|-------------|---------|
A |-----------|-----------|-------------|---------|
E |-----------|-----------|-------------|---------|

ending: plays the same as bridge 2 til the end.
This is my favroite song from the new Beyond EP. The bass line of this song is not loud enough for me to transcript. But the guitar tracks are very texturize and easy to play. The song arranged for 3 guitars: one acoustic guitar as rhythm, one overdriven guitar as fill in, and one delayed and reverbed guitar as guitar arpeggio. Also, there is no "speed of light" solo to overwhelm you. 

Enjoy the spacy feeling!

        
 Transcribed by Jan Wong (4-16-96)
 
 |----------------------- The End ---------------------------------------------|
 
添加到谱单
X

添加到谱单

《 太空 -- Beyond 》加入
◎ 选择已有谱单 创建新的

公开 (默认不公开,欢迎创建有意思的"公开谱单")

创建取消

推荐语(选填)

X

请先登录chord4


忘记密码