歌手头像-許巍

閃亮的瞬間

1 2 3 4 5
x

音乐人: 許巍

供谱者:reecho
--------------------------------------------------------------------
歌曲名: 
歌手/樂隊:許巍
編配者: 無名吉他手
曲調:bB
Email:yanjun--2006@163.com
--------------------------------------------------------------------
前奏:
  Cm(3)          bE(3)         F            Gm(3)
e|----------------|---------------|---------------|---------------|
B|-4-6-4-3--------|---------------|---------------|-3-4-3---------|
G|----------5-5-3-|------------3--|-5-5-3--5-5-3--|-----------5-3-|
D|----------------|-5-5-3--5-5----|---------------|---------------|
A|----------------|---------------|---------------|---------------|
E|----------------|---------------|---------------|---------------|

  Cm(3)          bE(3)         F            Gm(3)
e|----------------|---------------|---------------|---------------|
B|-4-6-4-3--------|---------------|---------------|---------------|
G|----------5-5-3-|------------3--|-5-5-3--5-5-3--|-3-2-----------|
D|----------------|-5-5-3--5-5----|---------------|------5--------|
A|----------------|---------------|---------------|---------------|
E|----------------|---------------|---------------|---------------|

  Cm(3)          bE(3)         F            Gm(3)
e|----------------|---------------|---------------|-5-3-----------|
B|-4-6-4-3--------|---------------|---------------|-----3-------3-|
G|----------5-5-3-|------------3--|-5-5-3--5-5-3--|-----------5---|
D|----------------|-5-5-3--5-5----|---------------|---------------|
A|----------------|---------------|---------------|---------------|
E|----------------|---------------|---------------|---------------|

  Cm(3)          bE(3)         F            Gm(3)
e|----------------|---------------|---------------|-6-5--3--------|
B|-4-6-4-3--------|---------------|---------------|---------------|
G|----------5-5-3-|------------3--|-5-5-3--5-5-3--|---------------|
D|----------------|-5-5-3--5-5----|---------------|---------------|
A|----------------|---------------|---------------|---------------|
E|----------------|---------------|---------------|---------------|


  Cm          bE               F         Gm
你溫柔如水的   雙眼是我         整晚沉醉   的世界
  Cm          bE               F         Gm
飛揚的琴聲如   玫瑰花雨         午夜星空   中慢舞
  Cm          bE               F         Gm
你那柔軟的     雙脣是我         清洗憂傷   的源泉
  Cm          bE               F         Gm
你的每次親吻   讓我輕盈         給我眩暈   的夜晚
  Cm          bE               F         Gm
你秀長的腿   迷離的雙眼         你陽光   般的笑顏
  Cm          bE               F         Gm
手指飛舞     心也在跳舞         爲你撥動   的琴玄
  CM          bE               F         Gm
歌聲飛舞     心也在跳舞         爲你歌唱   的夜晚

前奏-------------------------------------------

  Cm           bE              F         Gm
這春天的        夕陽是你        宛如桃花   的容顏
  Cm           bE              F         Gm
與你再次相逢    那一瞬間        知道一切   都變了
  Cm           bE              F         Gm
我那永遠      多變的世界      擁有隻爲了   再離別
  Cm           bE              F         Gm
就像這天邊的    夕陽如血        不停燃燒   又熄滅
  Cm           bE              F         Gm
沉默不語      我沉默不語      只是靜靜的   看着你
  Cm           bE              F         Gm
我忽然忘了    我來時的路      它已消失就   像閃電
  Cm           bE              F         Gm
我的長法      它不再飛舞        我的世界   已變了
  Cm           bE              F         Gm
我的琴玄      它已經鏽了        我的心也   空  了
  Cm           bE              F         Gm
沉默不語      我沉默不語      只是靜靜的   看着你
  Cm           bE              F         Gm
我忽然忘了    我來時的路      它已消失就   像閃電

嘟... ...     嘟... ...
====================================================================
添加到谱单
X

添加到谱单

《 閃亮的瞬間 -- 許巍 》加入
◎ 选择已有谱单 创建新的

公开 (默认不公开,欢迎创建有意思的"公开谱单")

创建取消

推荐语(选填)

X

请先登录chord4


忘记密码