歌手头像-Beyond

大地

1 2 3 4 5
x

音乐人: Beyond

供谱者:reecho
大地 guitar tab #bp-3

Actually, this song has only a few guitar tracks. 
All the guitar tracks in this song is played by an
acoustic guitar. The ending acoustic guitar probably
is the "hardest" part of the whole song. But I can
guarantee that it will take you only a few hours to
learn it. Remember, this song is real "electronics", 
so the guitar player will be very "happy" (even the
drums track are played by the drum machine)!

/  == slide

acoustic guitar with reverb
(play it 2 times)

e |-----5---5---------5---5---------3---3-----------5-------|
B |---5---5---5-----5---5---5-----5---5---5-------5---5-----|
G |-7-----------7-5-----------5-4-----------4---5-------5---|
D |-------------------------------------------7-----------7-|
A |---------------------------------------------------------|
E |---------------------------------------------------------|

then play the following rhythm
(Am & Em should be open chords)
D6 : |X---23X| (mute the 1 and the 6 strings)

|Am          |Em          |D6          |Am          |
|Am          |Em          |D6          |

guitar tarcet for a long time (hahaha! Totally 24 bars!)

the play the whole thing all over again as before.

guitar tarcet for a long time again 
(hahaha! Only the keyboard player is the busy one!)

ending acoustic guitar solo

e |----10-10h12-10h12p10----10-10----------10----------------------|
B |-13-------------------13-------10h12h13----13-12-10-10h12-10-10-|
G |----------------------------------------------------------------|
D |----------------------------------------------------------------|
A |----------------------------------------------------------------|
E |----------------------------------------------------------------|

e |--------------------------------------------------------------|
B |-10h12h13-13-12-10-10/8-8-----8-------------------------------|
G |--------------------------7h9---9/7---------------------------|
D |------------------------------------10-7----------------------|
A |--------------------------------------------------------------|
E |--------------------------------------------------------------|

e |----10-10h12-10h12p10----10-10--------------------------------|
B |-13-------------------13-------10h12h13-13-12-10----10-10-10--|
G |-------------------------------------------------12-----------|
D |--------------------------------------------------------------|
A |--------------------------------------------------------------|
E |--------------------------------------------------------------|

e |-----------------------------------------------------------------|
B |-10p8------------------------------------------------------------|
G |------9-9-9h7----------------------------------------------------|
D |--------------10-10/12-------10-12-10----10----------------------|
A |-----------------------10h12----------12----12-10----10-10-10h12-|
E |--------------------------------------------------12-------------|

repeat and fade out

(easy enough)

Transcribed by Jan Wong (3-14-96)

|--------------------- The --------------- End ------------------------------|
添加到谱单
X

添加到谱单

《 大地 -- Beyond 》加入
◎ 选择已有谱单 创建新的

公开 (默认不公开,欢迎创建有意思的"公开谱单")

创建取消

推荐语(选填)

X

请先登录chord4


忘记密码