歌手头像-Beyond

情人

1 2 3 4 5
x

音乐人: Beyond

供谱者:reecho
情人 guitar tab #brr-2

This is one of the best love song from the "Rock 'n Roll" album.
Actually, there is only a few guitar tracks in this song. The 
whole song is dominanted by sythesizer. But the acoustic guitar
ending solo is very cool. Also, this is the first time Beyond
use E-BOW in their songs. 

/ == slide
p == pulling off
h == hammering on

Intro: sythesizer, guitar tacet

2nd Verse: acoustic guitar plays arpeggio

   C                      Am7                  F                      G
e |--------3------3------|--------3--------3--|--------1------1------|--------3--------3--|
B |------1----------1----|------1--------1----|------1----------1----|------0--------0----|
G |----0--------0-----0--|----2--------2------|----2--------2-----2--|----0--------0------|
D |----------------------|--------------------|----------------------|--------------------|
A |--3--------3----------|--0--------0--------|----------------------|--------------------|
E |----------------------|--------------------|--1--------1----------|--3--------3--------|

   C                      Am7                  F                      G
e |--------3------3------|--------3--------3--|--------1------1------|--------3--------3--|
B |------1----------1----|------1--------1----|------1----------1----|------0--------0----|
G |----0--------0-----0--|----2--------2------|----2--------2-----2--|----0--------0------|
D |----------------------|--------------------|----------------------|--------------------|
A |--3--------3----------|--0--------0--------|----------------------|--------------------|
E |----------------------|--------------------|--1--------1----------|--3--------3--------|

   F          G           C        Em       Am F             Fm       G
e |-1---------3----------|------------------0-|--1--1-1------1--1-1--|--3-----------------|
B |-1---------0----------|-------1-------0--1-|--1--1-1------1--1-1--|--0-----------------|
G |-2---------0----------|-----0-------0----2-|--2--2-2------1--1-1--|--0-----------------|
D |-3---------0----------|---2-------2------2-|--3--3-3------3--3-3--|--0-----------------|
A |-3---------2----------|-3-------2--------0-|--3--3-3------3--3-3--|--2-----------------|
E |-1---------3----------|------------------0-|--1--1-1------1--1-1--|--3-----------------|

Chorus: acoustic guitar plays the following rhythm

  |C         |Em     Am     |Dm7          |G          |
  |C         |Em     Am     |Dm7          |G          |


E-BOW electric guitar solo 

   C               Am              F               G
e |---------------|---------------|---------------|---------------|
B |---------------|---------------|---------------|---------------|
G |---------------|---------------|---------------|---------------|
D |--5~--7~--10~--|--10/14~-------|--5~--7~--10~--|--10/12~-------|
A |---------------|---------------|---------------|---------------|
E |---------------|---------------|---------------|---------------|

   C               Am              F               Bb             Dm7    F
e |---------------|---------------|---------------|---------------------|-------|
B |---------------|---------------|---------------|---------------------|-------|
G |---------------|---------------|---------------|---------------------|-------|
D |--5~--7~--10~--|--10/14~-------|--5~--7~--10~--|--10/12~-14p12-10-12-|--10~--|
A |---------------|---------------|---------------|---------------------|-------|
E |---------------|---------------|---------------|---------------------|-------|

acoustic guitar at the last bar F at the end of the solo, as the following

   F          G           C        Em       Am F             Fm       G
e |-1---------3----------|------------------0-|--1--1-1------1--1-1--|--3-----------------|
B |-1---------0----------|-------1-------0--1-|--1--1-1------1--1-1--|--0-----------------|
G |-2---------0----------|-----0-------0----2-|--2--2-2------1--1-1--|--0-----------------|
D |-3---------0----------|---2-------2------2-|--3--3-3------3--3-3--|--0-----------------|
A |-3---------2----------|-3-------2--------0-|--3--3-3------3--3-3--|--2-----------------|
E |-1---------3----------|------------------0-|--1--1-1------1--1-1--|--3-----------------|

then play the rhythm,

  |C         |Em     Am     |Dm7          |G          |
  |C         |Em     Am     |Dm7          |G          |

ending acoustic guitar solo and fade out

                              F                   G
e |--------------------------|-1-1-1-1-1-1-1-1-1-|-3-3-3-3-3-3-3-3-3-|
B |----------1-3-1--------1--|-1-1-1-1-1-1-1-1-1-|-0-0-0-0-0-0-0-0-0-|
G |-----0h2---------2p0h2----|-2-2-2-2-2-2-2-2-2-|-0-0-0-0-0-0-0-0-0-|
D |--2-----------------------|-3-3-3-3-3-3-3-3-3-|-0-0-0-0-0-0-0-0-0-|
A |--------------------------|-3-3-3-3-3-3-3-3-3-|-2-2-2-2-2-2-2-2-2-|
E |--------------------------|-1-1-1-1-1-1-1-1-1-|-3-3-3-3-3-3-3-3-3-|

                                    F                   G
e |--------------------------------|-1-1-1-1-1-1-1-1-1-|-3-3-3-3-3-3-3-3-3-|
B |-------1-3-3/5-3-1-------3/5-5~-|-1-1-1-1-1-1-1-1-1-|-0-0-0-0-0-0-0-0-0-|
G |--0h2--------------0-2-0--------|-2-2-2-2-2-2-2-2-2-|-0-0-0-0-0-0-0-0-0-|
D |--------------------------------|-3-3-3-3-3-3-3-3-3-|-0-0-0-0-0-0-0-0-0-|
A |--------------------------------|-3-3-3-3-3-3-3-3-3-|-2-2-2-2-2-2-2-2-2-|
E |--------------------------------|-1-1-1-1-1-1-1-1-1-|-3-3-3-3-3-3-3-3-3-|

                                       
e |--3-3-3--1-0h1-0-0--0-----0h1p0-|----------5----------------5-----3-----|
B |----------------------1---------|------1-3---1-1/3------1-3---3/5-------|
G |------------------------2-------|--0h2--------------0h2-----------------|
D |--------------------------------|---------------------------------------|
A |--------------------------------|---------------------------------------|
E |--------------------------------|---------------------------------------|

e |-15-15-15--13-12-----12---------|-12-------12h13p12-----------------------|
B |------------------15----13-13---|----13--------------------------13-14-13-|
G |--------------------------------|-------14-----------------12-14----------|
D |--------------------------------|--------------------12-14----------------|
A |--------------------------------|-----------------------------------------|
E |--------------------------------|-----------------------------------------|

e |--------------------------------|----------------|
B |--------------15-13-15-13-12-13-|--13-13-13--->--|
G |--------12-14-------------------|----------------|
D |--12-14-------------------------|----------------|
A |--------------------------------|----------------|
E |--------------------------------|----------------|
                                    fade out

Transcribed by Jan Wong (3-6-96)


|------------------------- The ----------- End -----------------------------------|
添加到谱单
X

添加到谱单

《 情人 -- Beyond 》加入
◎ 选择已有谱单 创建新的

公开 (默认不公开,欢迎创建有意思的"公开谱单")

创建取消

推荐语(选填)

X

请先登录chord4


忘记密码