歌手头像-Radiohead

High And Dry

1 2 3 4 5
x

音乐人: Radiohead

供谱者:reecho
[Intro]

e|--4--4--4--4\2--2--2--2--2----4--4--4--4\0--0--0--0--0----0-|
B|--0--0--0--0\0--0--0--0--0----0--0--0--0\0--0--0--0--0----0-|
G|--6--6--6--6\4--4--4--4--4----6--6--6--6\2--2--2--2--2----1-|
D|--6--6--6--6\4--4--4--4--4----6--6--6--6\2--2--2--2--2----2-|
a|--x--x--x--x\x--X--X--X--X----x--x--x--x\0--0--0--0--0----2-|
E|--x--x--x--x\x--X--X--X--X----x--x--x--x\x--x--x--x--x----0-|

e|--4--4--4--4\2--2--2--2--2----4--4--4--4\0--0--0--0--0----0-|
B|--0--0--0--0\0--0--0--0--0----0--0--0--0\0--0--0--0--0----0-|
G|--6--6--6--6\4--4--4--4--4----6--6--6--6\2--2--2--2--2----1-|
D|--6--6--6--6\4--4--4--4--4----6--6--6--6\2--2--2--2--2----2-|
A|--x--x--x--x\x--X--X--X--X----x--x--x--x\0--0--0--0--0----2-|
E|--x--x--x--x\x--X--X--X--X----x--x--x--x\x--x--x--x--x----0-|


[Verse 1]

F#m(11)                      Asus2                               E            E 
two jumps inAsus2 week i bet you think that's pretty clever don't you boy.
F#m(11)                   Asus2                              E                E 
flying on your motorcycle. watching all the ground beneath you drop.
      F#m(11)                       Asus2                        E            E 
you'd kill yourself for recognition. kill yourself to never ever stop.
    F#m(11)                     Asus2                         E               E 
you broke another mirror. you're turning into something you are not.


[Chorus]

              F#m(11) Asus2                E          E
don't lead me high,    don't lead me dry, 
              F#m(11) Asus2                E          E
don't lead me high,    don't lead me dry. 

e --4--4--4--4\2--2--2--2--2----4--4--4--4\0--0--0--0--0----0-|
B --0--0--0--0\0--0--0--0--0----0--0--0--0\0--0--0--0--0----0-|
G --6--6--6--6\4--4--4--4--4----6--6--6--6\2--2--2--2--2----1-|
D --6--6--6--6\4--4--4--4--4----6--6--6--6\2--2--2--2--2----2-|
A --x--x--x--x\x--X--X--X--X----x--x--x--x\0--0--0--0--0----2-|
E --x--x--x--x\x--X--X--X--X----x--x--x--x\x--x--x--x--x----0-|

e --4--4--4--4\2--2--2--2--2----4--4--4--4\0--0--0--0--0----0-|
B --0--0--0--0\0--0--0--0--0----0--0--0--0\0--0--0--0--0----0-|
G --6--6--6--6\4--4--4--4--4----6--6--6--6\2--2--2--2--2----1-|
D --6--6--6--6\4--4--4--4--4----6--6--6--6\2--2--2--2--2----2-|
A --x--x--x--x\x--X--X--X--X----x--x--x--x\0--0--0--0--0----2-|
E --x--x--x--x\x--X--X--X--X----x--x--x--x\x--x--x--x--x----0-|  


[Verse 2]

F#m(11)                  Asus2                          E                      E 
drying up in conversation you will be the one who cannot talk.
F#m(11)                         Asus2                                    E     E
all your insides fall to pieces. you just sit there wishing you could still make love.

F#m(11)                                  Asus2                             E   E
they're the ones who'll hate you when you think you've got the world all sussed out.
F#m(11)                             Asus2                        E             E 
they're the ones who'll spit at you. you will be the one screaming out.


[Chorus]

              F#m(11) Asus2                E          E
don't lead me high,    don't lead me dry, 
              F#m(11) Asus2                E          E
don't lead me high,    don't lead me dry. 


[Solo]

F#m(11) Asus2       E       E       

F#m(11) Asus2       E       E       


[Bridge]

         F#m(11)                     Asus2     E                        E
it's the best thing that you ever had.  the best thing that you ever ever had.
         F#m(11)                     Asus2    E                           E
it's the best thing that you ever had. the best thing that you had has gone away.

[Chorus]

              F#m(11) Asus2                E          E
don't lead me high,    don't lead me dry, 
              F#m(11) Asus2                E          E
don't lead me high,    don't lead me dry. 
              F#m(11) Asus2     E     E 
don't lead me high,
              F#m(11) Asus2                 E
don't lead me high,    don't leave me dry.

*******************

\  Slide down
x  Dead note

*******************

G#5 (x,11,x,13,x,x) or (x,6,6,4,0,0)
F#5 (x,9,x,11,x,x) or F#m(11)
A#5 (x,7,x,9,x,x) or Asus2
E5 (0,7,9,9,x,x) or E
F#m(11) (x,4,4,2,0,0)
Asus2 (x,0,2,2,0,0)
E (0,2,2,1,0,0)
添加到谱单
X

添加到谱单

《 High And Dry -- Radiohead 》加入
◎ 选择已有谱单 创建新的

公开 (默认不公开,欢迎创建有意思的"公开谱单")

创建取消

推荐语(选填)

X

请先登录chord4


忘记密码