歌手头像-Beyond

声音

1 2 3 4 5
x

音乐人: Beyond

供谱者:reecho
聲音 guitar tab #bsd-2

I love the simplicity of this song.
 However, the background solo at the end of the song is very hard to transcript.
 I can't hear what Paul's playing, and I can't play fast solo too :) 
So I didn't trancript the ending guitar background solo.... *grin* :D

Intro: bass guitar enter first
       distored guitar then enter (make some feedback first)
       (Do you know how to make feedback?.... duh... just put 
        your guitar near your amp... bang! You got it!)

   muted by left hand  * repeat this four times
e |-x-x-x-x-x-x-x-x-||-----------------|-----------------||
B |-x-x-x-x-x-x-x-x-||-----------------|-----------------||
G |-x-x-x-x-x-x-x-x-||-----------------|-----------------||
D |-x-x-x-x-x-x-x-x-||---------------6-|-7-7--7-7-7--6---||
A |-x-x-x-x-x-x-x-x-||-7-7--7-7-7--9-4-|-5-5--5-5-5--4-9-||
E |-x-x-x-x-x-x-x-x-||-5-5--5-5-5--7---|---------------7-||

verse 1(play this 2 times)

   guitar 1
e |---------------4-|-------------------------|
B |-----------------|-------7---------8-------|
G |-------4-----6---|-----7--------10---10----|
D |-----7-----6-----|---7-------10---------10-|
A |---7-----4-------|-5-------8---------------|
E |-5---------------|-------------------------|

   guitar 2
e |-----------------|--------------------|
B |-----------------|--------------------|
G |---------6-6-6---|-7-7-7---10-10-10---|
D |-7-7-7---6-6-6---|-7-7-7---10-10-10---|
A |-7-7-7---4-4-4---|-5-5-5---8--8--8----|
E |-5-5-5-----------|--------------------|

verse 2

   guitar 1 
e |-------------------------|------------|
B |-------------------------|------------|
G |-------------------------|------------|
D |----------------7-7------|------------|
A |-7-7--5/7-------5-5------|-3-3--3-3-3-|
E |-5-5-------5-7-------5-7-|-1-1--1-1-1-|
        #
guitar 2 play a pick slide on #

repeat the intro (with the *) 2 times

repeat verse 1 once then play this verse 2:

verse 2

   guitar 1 
e |-------------------------|------------|------------|------------|
B |-------------------------|------------|------------|------------|
G |-------------------------|------------|------------|------------|
D |----------------7-7------|------------|------------|------------|
A |-7-7--5/7-------5-5------|-3-3--3-3-3-|-5-5--5-5-5-|-5-5--5-5-5-|
E |-5-5-------5-7-------5-7-|-1-1--1-1-1-|-3-3--3-3-3-|-3-3--3-3-3-|
        #                                               *
guitar 2 play a pick slide on #
guitar 2 play muted tone like the intro

chorus 2 times

e |-------------|-------------|-------------|-----------|
B |-------------|-------------|-------------|-----------|
G |-------------|-------------|-------------|-----------|
D |-------------|-6-6-6-6-6-6-|-7-7-7-7-7-7-|-10-10-----|
A |-7-7-7-7-7-7-|-4-4-4-4-4-4-|-5-5-5-5-5-5-|-8--8--5-5-|
E |-5-5-5-5-5-5-|-------------|-------------|-------3-3-|

repeat the intro (with the *) 4 times

repeat verse 1 and verse 2 (the second one) 

repeat chorus

repeat the chorus 2 times then

play this 4 times
e |-----------------|-----------------|----------------|----------------|
B |-----------------|-----------------|----------------|----------------|
G |-----------------|-----------------|----------------|----------------|
D |---------------6-|-7-7--7-7-7--6---|----------------|----------------|
A |-7-7--7-7-7--9-4-|-5-5--5-5-5--4-9-|-3-3--3-3-3-3-3-|-5-5--5-5-5-5-5-|
E |-5-5--5-5-5--7---|---------------7-|-1-1--1-1-1-1-1-|-3-3--3-3-3-3-3-|

ending
guitar 1 play the last note as sliding
from 3th fret graduately to the higher fret
i.e. 12 or above fret.... with tremelo picking

e |---------------------------|
B |---------------------------|
G |---------------------------|
D |---------------------------|
A |-3/8--4/9--5//////////////-|
E |-1/6--2/7--3//////////////-|

guitar 2 plays ad-lib.... just play some notes fast and chaotic...
添加到谱单
X

添加到谱单

《 声音 -- Beyond 》加入
◎ 选择已有谱单 创建新的

公开 (默认不公开,欢迎创建有意思的"公开谱单")

创建取消

推荐语(选填)

X

请先登录chord4


忘记密码