歌手头像-Radiohead

Street Spirit Fade Out

1 2 3 4 5
x

音乐人: Radiohead

供谱者:reecho
----------------------------------------------------------------------
                            Street Spirit - Radiohead
----------------------------------------------------------------------
By: Dave Grayhl
Album: The Bends

One of my Favourite songs... 
 intro        X4
e|---------0--------------0-------------0----------------------|
B|---------------3--------------1---------------0--------------|
G|------------2------2------2-------2-------2-------2--------2-|
D|-----2------------------------------------------------2------|
A|-0-----------------------------------------------------------|
E|-------------------------------------------------------------|

        Am                      
e|---------0--------------0-------------0----------------------|
B|---------------3--------------1---------------0--------------|
G|------------2------2------2-------2-------2-------2--------2-|
D|-----2------------------------------------------------2------|
A|-0-----------------------------------------------------------|
E|-------------------------------------------------------------|
   Rows           of            house-----------es
        Am
e|---------0--------------0-------------0----------------------|
B|---------------3--------------1---------------0--------------|
G|------------2------2------2-------2-------2-------2--------2-|
D|-----2------------------------------------------------2------|
A|-0-----------------------------------------------------------|
E|-------------------------------------------------------------|
  All         Bearing          down            on me
        Am
e|---------0--------------0-------------0----------------------|
B|---------------3--------------1---------------0--------------|
G|------------2------2------2-------2-------2-------2--------2-|
D|-----2------------------------------------------------2------|
A|-0-----------------------------------------------------------|
E|-------------------------------------------------------------|
   I            Can             Feel            Thier
        Am
e|---------0--------------0-------------0----------------------|
B|---------------3--------------1---------------0--------------|
G|------------2------2------2-------2-------2-------2--------2-|
D|-----2------------------------------------------------2------|
A|-0-----------------------------------------------------------|
E|-------------------------------------------------------------|
  Blue           Haands       Touching          Me!
        Em
e|---------0--------------0-------------0----------------------|
B|---------------3--------------1---------------0--------------|
G|------------0------0------0-------0-------0-------0--------0-|
D|------------------------------------------------------2------|
A|------2------------------------------------------------------|
E|-0-----------------------------------------------------------|
   All   These Things     in----to    po----si----tion
        Em
e|---------0--------------0-------------0----------------------|
B|---------------3--------------1---------------0--------------|
G|------------0------0------0-------0-------0-------0--------0-|
D|------------------------------------------------------2------|
A|------2------------------------------------------------------|
E|-0-----------------------------------------------------------|
   All  These    Things  will   one   day swallow whole 
        Am
e|---------0--------------0-------------0----------------------|
B|---------------3--------------1---------------0--------------|
G|------------2------2------2-------2-------2-------2--------2-|X2
D|-----2------------------------------------------------2------|
A|-0-----------------------------------------------------------|
E|-------------------------------------------------------------|

        C
e|---------0--------------0-------------0----------------------|
B|---------------3--------------1---------------0--------------|
G|------------0------0------0-------0-------0-------0--------0-|
D|-----2------------------------------------------------2------|
A|-3-----------------------------------------------------------|
E|-------------------------------------------------------------|
  And Faaaaaaaaaaaaaaaaaaaaaaaaaaaaaaaaaadeeeeee
        Em
e|---------0--------------0-------------0----------------------|
B|---------------3--------------1---------------0--------------|
G|------------0------0------0-------0-------0-------0--------0-|
D|------------------------------------------------------2------|
A|------2------------------------------------------------------|
E|-0-----------------------------------------------------------|
   Outttttttttttttttttttttttttttttttttt
        Am
e|---------0--------------0-------------0----------------------|
B|---------------3--------------1---------------0--------------|
G|------------2------2------2-------2-------2-------2--------2-|X2
D|-----2------------------------------------------------2------|
A|-0-----------------------------------------------------------|
E|-------------------------------------------------------------|
  Againnnnnnnnnnnnnnnnnnnnnnnnnnnnnnnn
        C
e|---------0--------------0-------------0----------------------|
B|---------------3--------------1---------------0--------------|
G|------------0------0------0-------0-------0-------0--------0-|
D|-----2------------------------------------------------2------|
A|-3-----------------------------------------------------------|
E|-------------------------------------------------------------|
  And Faaaaaaaaaaaaaaaaaaaaaaaaaaaaaaaaaadeeeeee
       Em
e|---------0--------------0-------------0----------------------|
B|---------------3--------------1---------------0--------------|
G|------------0------0------0-------0-------0-------0--------0-|
D|------------------------------------------------------2------|
A|------2------------------------------------------------------|
E|-0-----------------------------------------------------------|
   Outttttttttttttt
  

(same chord progressions)
Am                 Am                    Am
This machine will, will not communicate, these thoughts and the strain i am under
Em                              Em
Be a world child; form a circle,before we all,
Am       Am
go under

C             Em      Am    Am
And Fadeeeee, ouuuut, Againnnnnnn
C             Em      Am    Am
And Fadeeeee, ouuuut, Again.
(drum intro)
(interlude uhh uhh bit)
C          Em        Am            Am
Uh uh uh,  uh uh uh, uh uh uh uhh, uh uh uh
C          Em        
Uh uh uh,  uh uh uh, 
Am
Cracked eggs, dead birds                 
Am                                       
Screaam as they fight for life           
Am                                      
i can feel death                        
Am                                       
Can see its beady eyes

(background tab)
e|--------------------------12----------|
B|-13-12----12-13--13-12-------13-12----|
G|-------14--------------14----------14-|
D|--------------------------------------|
A|--------------------------------------|
E|--------------------------------------|

Em                              Em
all these things into position, All these things will one day swallow whole
Am X2
 
Chorus
    C          Em       Am       Am
And Fadeee     ouuuuuut againnnnnnnnnnnnnnnnnnnnn
    C          Em       Am       Am
And Fadeee     ouuuuut  againnn

C          Em        Am            Am
Uh uh uh,  uh uh uh, uh uh uh uhh, uh uh uh
C          Em        Am            Am
Uh uh uh,  uh uh uh, uh uh uh uhh, uh uh uh

C/G        Em             Am     Am
Immerse, your soul..... in love

(C/G progression)
e|---------0--------------0-------------0----------------------|
B|---------------3--------------1---------------0--------------|
G|------------0------0------0-------0-------0-------0--------0-|
D|-----2------------------------------------------------2------|
A|-------------------------------------------------------------|
E|-3-----------------------------------------------------------|

C/G        Em        (Am) Shown in tab below)
Immerse, your soul in love

(Slow)
e|---------0--------------0-------------0--------------------------|
B|---------------3--------------1---------------0------------------|
G|------------2------2------2-------2-------2-------2--------2-----|
D|-----2------------------------------------------------2----------|
A|-0------------------------------------------------------------0--|
E|-----------------------------------------------------------------|

My first Tab :) Enjoy Wisely
添加到谱单
X

添加到谱单

《 Street Spirit Fade Out -- Radiohead 》加入
◎ 选择已有谱单 创建新的

公开 (默认不公开,欢迎创建有意思的"公开谱单")

创建取消

推荐语(选填)

X

请先登录chord4


忘记密码