歌手头像-Beyond

回家

1 2 3 4 5
x

音乐人: Beyond

供谱者:reecho
回家  --- 結他譜

A song with a fab tune and some flowing guitar riffs.
Ending riff played by a clean electric and an acoustic guitar. 
This tab only has the electric riff transcribed. Thanks for the help from
Jan Wong to help me to transcribe the solo!

Intro (very very quiet)
e |--2--|
B |--2--|
G |--2--|
D |-----|
A |-----|
E |-----|

Paul's vocal 這是誰的 ...
e |-2-2-2-2-|-0-0-0-0-|-2-2-2-2-|-0-0-0-0-|--1--|
B |-2-2-2-2-|-0-0-0-0-|-2-2-2-2-|-0-0-0-0-|--1--|
G |-2-2-2-2-|-1-1-1-1-|-2-2-2-2-|-1-1-1-1-|--2--|
D |-4-4-4-4-|-2-2-2-2-|-4-4-4-4-|-2-2-2-2-|--1--|
A |-4-4-4-4-|-2-2-2-2-|-4-4-4-4-|-2-2-2-2-|-----|
E |-2-2-2-2-|-0-0-0-0-|-2-2-2-2-|-0-0-0-0-|-----|


-----------------------------------------------------------------------------------------
verse1
e |--------0-----0-------0-----0-------0--0-|------0-------0-----0-------0--0-0-|
B |------2-----2-------3-----2-------0----2-|----2-------3-----2-------0----2-2-|
G |-2--2-----1-------2-----2-----2-1------2-|--1-------2-----2-----2-1------2-2-|
D |----------------4------------------------|--------4--------------------------|
A |-----------------------------------------|-----------------------------------|
E |-----------------------------------------|-----------------------------------|

-----------------------------------------------------------------------------------------
verse2
played by distorted guitar
e |----------------------|---------------|
B |-----------2----------|---------------|
G |--1/2-2~-4---4-2------|---------------|
D |-----------------2-2--|---------------|
A |----------------------|---------------|
E |----------------------|--6-9-7~~~-3-0-|

e |--------------------------|
B |--------------------------|
G |------------4-6-7-6-4-----|
D |----------6-----------6---|
A |------4-8-----------------|
E |--5-7---------------------|

-----------------------------------------------------------------------------------------
chorus
e |-2-2-2-2-|-0-0-0-0-|-2-2-2-2-|-0-0-0-0-|
B |-2-2-2-2-|-0-0-0-0-|-2-2-2-2-|-0-0-0-0-|
G |-2-2-2-2-|-1-1-1-1-|-2-2-2-2-|-1-1-1-1-|
D |-4-4-4-4-|-2-2-2-2-|-4-4-4-4-|-2-2-2-2-|
A |-4-4-4-4-|-2-2-2-2-|-4-4-4-4-|-2-2-2-2-|
E |-2-2-2-2-|-0-0-0-0-|-2-2-2-2-|-0-0-0-0-|

e |-2-2-2-2-|-0-0-0-0-|-2-2-2-2-|-0-0-0-0-|-2-*-2-|
B |-2-2-2-2-|-0-0-0-0-|-2-2-2-2-|-0-0-0-0-|-2-*-2-|
G |-2-2-2-2-|-1-1-1-1-|-2-2-2-2-|-1-1-1-1-|-2-*-2-|
D |-4-4-4-4-|-2-2-2-2-|-4-4-4-4-|-2-2-2-2-|-------|
A |-4-4-4-4-|-2-2-2-2-|-4-4-4-4-|-2-2-2-2-|-------|
E |-2-2-2-2-|-0-0-0-0-|-2-2-2-2-|-0-0-0-0-|-------|

-----------------------------------------------------------------------------------------
bridge
e |-0-----0----0-----0----0-----0----0-----0-0-----0-----|
B |-----2----------2----------3----------2-------0---0---|
G |---2----------1----------2----------2---------------2-|
D |------------------------------------------------------|
A |------------------------------------------------------|
E |------------------------------------------------------|
repeat verse1

-----------------------------------------------------------------------------------------
verse2
e |----------------------|---------------|--------|
B |-----------2----------|---------------|--------|
G |--1/2-2~-4---4-2------|---------------|--------|
D |-----------------2-2--|---------------|--------|
A |----------------------|---------------|-0/17/5-|
E |----------------------|--6-9-7~~~-3-0-|-0/17/5-|

e |-----------------------|
B |-----------------------|
G |---------4-6-7-6-4-----|
D |-------6-----------6---|
A |---4-8-----------------|
E |-----------------------|

-----------------------------------------------------------------------------------------
chorus
e |-2-2-2-2-|-0-0-0-0-|-2-2-2-2-|-0-0-0-0-|
B |-2-2-2-2-|-0-0-0-0-|-2-2-2-2-|-0-0-0-0-|
G |-2-2-2-2-|-1-1-1-1-|-2-2-2-2-|-1-1-1-1-|
D |-4-4-4-4-|-2-2-2-2-|-4-4-4-4-|-2-2-2-2-|
A |-4-4-4-4-|-2-2-2-2-|-4-4-4-4-|-2-2-2-2-|
E |-2-2-2-2-|-0-0-0-0-|-2-2-2-2-|-0-0-0-0-|

e |-2-2-2-2-|-0-0-0-0-|-2-2-2-2-|-0-0-0-0-|-2-*-2-|
B |-2-2-2-2-|-0-0-0-0-|-2-2-2-2-|-0-0-0-0-|-2-*-2-|
G |-2-2-2-2-|-1-1-1-1-|-2-2-2-2-|-1-1-1-1-|-2-*-2-|
D |-4-4-4-4-|-2-2-2-2-|-4-4-4-4-|-2-2-2-2-|-------|
A |-4-4-4-4-|-2-2-2-2-|-4-4-4-4-|-2-2-2-2-|-------|
E |-2-2-2-2-|-0-0-0-0-|-2-2-2-2-|-0-0-0-0-|-------|


-----------------------------------------------------------------------------------------
guitar solo
gtr1
e |-----------------------12---------------------|
B |------------------9-10----9-------------------|
G |---------------11-----------9-9---------(7^)7-|the brackets means you have to play a
D |------------11------------------9-8-7---------|pick harmonic at the 7th fret while
A |-12~~-11-12---------------------------9-------|bending the string to the sound of the
E |----------------------------------------------|9th fret! Confused

e |--------14-12-------------------------|
B |-/14-14-------12^-10-12-12-10---------|
G |------------------------------11-9~~~-|
D |--------------------------------------|
A |--------------------------------------|
E |--------------------------------------|

gtr2 takes over
e |----12---10---9-----------------------------------------|
B |----------------10-----------10-------------------------|
G |-/9----9----9------9-------9----9-----------------------|
D |---------------------11-12--------12-11-9------------8~-|
A |------------------------------------------12~~-11-12----|
E |--------------------------------------------------------|

e |----------------------------|--------------------------------------------|
B |----------------------------|--------------------------------------------|
G |----------------------------|----------------11----11-14-11-14-16-16^^^^-|
D |-7-8-9-8-9~--9-11-12-11-12~-|-11-12-14-12-14----14-----------------------|
A |----------------------------|--------------------------------------------|
E |----------------------------|--------------------------------------------|

-----------------------------------------------------------------------------------------
*play this with a distorted guitar before you repeat the chorus
gtr1
e |-----------------------|
B |-----------------------|
G |---------4-6-7-6-4-----|
D |-------6-----------6---|
A |---4-8-----------------|
E |-----------------------|
gtr2
e |-------------------14~~~-|
B |-------------------------|
G |-------------------------|
D |-------------------------|
A |-------------------------|
E |-------------------------|
repeat chorus

-----------------------------------------------------------------------------------------
ending riff
e |---0-------------0-|---0-------------0-|---0------0--0-|---------|----------|-0------|
B |-----0---------0---|-----0---------0---|-----0----0--0-|---------|----12-10-|-2------|
G |-2-----2---2-2-----|-2-----2---2-2-----|-2-----2--2--2-|---------|----------|-2------|
D |-------------------|-------------------|---------------|---------|----------|-2------|
A |-------------------|-------------------|---------------|---------|-12-------|-0------|
E |-------------------|-------------------|---------------|---------|----------|-0------|

Transcribed by Arnold Fung (24-1-1998)
Finished on 22-2-98
Modified on 12-9-98

|--------------- 玩 完 ---------------|
添加到谱单
X

添加到谱单

《 回家 -- Beyond 》加入
◎ 选择已有谱单 创建新的

公开 (默认不公开,欢迎创建有意思的"公开谱单")

创建取消

推荐语(选填)

X

请先登录chord4


忘记密码