歌手头像-蕭正楠

圍牆

1 2 3 4 5
x

音乐人: 蕭正楠

供谱者:reecho
仁心解碼II 主題曲
曲:鄧智偉 
詞:林日曦         
編配者:Peter Lee(http://polygonguitar.blogspot.com)
-------------------------------------------------------
Key=Bb   Play=G   Capo=3


G          Am
(蜷)縮沙發中 呆望(閉)上了的窗
D          G
(滿)佈天花的烏雲 (那)麼自然地在場
Em         Bm
(頭)顱太過混亂 存(活)得牽強
  C     D
無力(推)開四(面)牆

G         Am
(身)體潦倒 人被(控)制了思想
D          G
(兩)眼沾濕的當時 (痛)得莫名地斷腸

Bm           Em
(靈)魂可否回來為(我)灌注力氣
    C         D
從絕處起()來 塵寰上試打(一)仗


  G       D
@誰(想)沉淪在空(想)圍牆
 C    D     G    D
誰(都)想(失)控下沉(是)過(場)
 G        D
拿(出)餘力站起(身)嚐嚐
  C   D     G    D
仍(可)呼(吸)氧份如(像)往(常)
  C        D    Bm      Em
當一(片)浪退去潮又(漲) 感(冒)能病癒能無(恙)
   C        D   G
看也許(有)日世界能換(轉)風(向)@

Bridge

|G| C| G |C|
|G |C|G | C D G D |

Bm           Em
(明)明冰封圍牆外 (有)壯闊盛況
    C         D
就算要失()常 無愁愉快失(一)趟

repeat @

C        D    Bm      Em
(往)事過去無謂(看) 當(舊)情漸舊無謂(望)
   C        D   G
我也許(闊)步過去能望(見)方(向)


以下為Bridge 的彈法

**(純粹個人編寫,如要跟原譜一樣,請自行配譯)**

左手按所指示之chord彈奏, 另1拍分為  1ena, EADGBE為結他上的六絃
     G                                                 C

 G         C
E|3-------|---------|
A|--------|3--------|
D|-0-0-0-0|-2-2--2--|X2
G|--------|--0-0--0-|
B|0-0-0-0-|1-------1|
E|--------|---------|

 G          C
E|3---------|----------|
A|----------|3---------|
D|-0--0--0--|-2--2--2--|
G|--0--0--0-|--0--0--0-|
B|0--0--0--0|1--1--1--1|
E|----------|----------|

 G           CDGD
E|3---------|--3-|
A|----------|3---|
D|-0--0--0--|-0-0|
G|--0--0--0-|0202|
B|0--0--0--0|1303|
E|----------|0232|


添加到谱单
X

添加到谱单

《 圍牆 -- 蕭正楠 》加入
◎ 选择已有谱单 创建新的

公开 (默认不公开,欢迎创建有意思的"公开谱单")

创建取消

推荐语(选填)

X

请先登录chord4


忘记密码