歌手头像-Beyond

喜歡你

1 2 3 4 5
x

音乐人: Beyond

供谱者:reecho
喜歡妳 --- 結他譜

The synthesiser dominates this song. Some very cool guiatr riffs though.
Th econcert version is very similar to this one, so if you can play the
concert version, there should be no trouble at all.
Again, I transcribed the concert version.

intro
e |-0---0-|-0---0-|-0---0-|-0---0-|-0-|
B |-3---1-|-3---1-|-3---1-|-3---1-|-3-|
G |-0---0-|-0---0-|-0---0-|-0---0-|-0-|
D |-2---2-|-2---2-|-2---2-|-2---2-|-2-|
A |-3---3-|-3---3-|-3---3-|-3---3-|-3-|
E |-------|-------|-------|-------|---|

verse1 (acoustic)
    C                C               Am                Am
e |--------0-------|--------0-------|--------0-------|--------0-------|
B |----------1-----|----------1-----|----------1-----|----------1-----|
G |-0----0-----0---|-0----0-----0---|-2----2-----2---|-2----2-----2---|
D |-2--2---------2-|-2--2---------2-|-2--2---------2-|-2--2---------2-|
A |-3--------------|-3--------------|-0--------------|-0--------------|
E |----------------|----------------|----------------|----------------|

    C                C               Am                Am
e |--------0-------|--------0-------|--------0-------|--------0-------|
B |----------1-----|----------1-----|----------1-----|----------1-----|
G |-0----0-----0---|-0----0-----0---|-2----2-----2---|-2----2-----2---|
D |-2--2---------2-|-2--2---------2-|-2--2---------2-|-2--2---------2-|
A |-3--------------|-3--------------|-0--------------|-0--------------|
E |----------------|----------------|----------------|----------------|

verse2
    F                 G
e |-------1-------1-|-------3-------3-|-3-|
B |-----1-------1---|-----3-------3---|-3-|
G |---2-------2-----|---4-------4-----|-4-|
D |-3-------3-------|-5-------5-------|-5-|
A |-----------------|-----------------|-5-|
E |-----------------|-----------------|-3-|
repeat verse1, then play...

    F                 G                 G
e |-------1-------1-|-------3-------3-|-3-0-----------0-3-0-|
B |-----1-------1---|-----3-------3---|-----3-1-0-1-3-------|
G |---2-------2-----|---4-------4-----|---------------------|
D |-3-------3-------|-5-------5-------|---------------------|
A |-----------------|-----------------|---------------------|
E |-----------------|-----------------|---------------------|

chorus (no guitar)

C   Am   F  G
C   Am   F  G

bridge
e |-0---0-|-0---0-|-0-|
B |-3---1-|-3---1-|-3-|
G |-0---0-|-0---0-|-0-|
D |-2---2-|-2---2-|-2-|
A |-3---3-|-3---3-|-3-|
E |-------|-------|---|

verse1 (cleean electric)

e |-8-8-x-8---8-8-x-8-|-5-5-x-5---5-5-x-5-|-8-8-x-8---8-8-x-8-|-5-5-x-5---5-5-x-5-|
B |-8-8-x-8---8-8-x-8-|-5-5-x-5---5-5-x-5-|-8-8-x-8---8-8-x-8-|-5-5-x-5---5-5-x-5-|
G |-------------------|-------------------|-------------------|-------------------|
D |-------------------|-------------------|-------------------|-------------------|
A |-------------------|-------------------|-------------------|-------------------|
E |-------------------|-------------------|-------------------|-------------------|

e |-8-8-x-8---8-8-x-8-|-10-10-x-10---10-10-x-10-|
B |-8-8-x-8---8-8-x-8-|--8--8-x--8----8--8-x--8-|the last bar involves playing the 2 strings
G |-------------------|-------------------------|with a very small time difference
D |-------------------|-------------------------|
A |-------------------|-------------------------|
E |-------------------|-------------------------|

(acoustic fill-in) plays immediately after the last bar of the electric
e |-3-0-----------0-3-0-|
B |-----3-1-0-1-3-------|
G |---------------------|
D |---------------------|
A |---------------------|
E |---------------------|


chorus (electric guitar)
(acoustic plays some very quiet arpeggio of the the chords:   C   Am   F     G)

e |--------------12---------------------------------------------------------------------|
B |-13-15-15-13-----15-13-----12-12-------13-12----12----------------------12-12--------|
G |------------------------14-------14-------------------14-------------14-------14-----|
D |------------------------------------14-------14----14----14----15-15-------------15--|
A |-------------------------------------------------------------------------------------|
E |-------------------------------------------------------------------------------------|

e |------------------------------------------------------|
B |--12-------12---------------12-------13----15--13--12-|
G |-----14----------14---12-12----12-12----12------------| *play acoustic fill-in as earlier*
D |--------15----15----15--------------------------------|
A |------------------------------------------------------|
E |------------------------------------------------------|

e |--------------------12--------------------------------------------------------------------|
B |-13--------15-13-------15-13-----12-12-------13-12----12----------------------12-12-------|
G |----12--12-------12-----------14-------14-------------------14-------------14-------14----|
D |------------------------------------------14-------14----14----14----15-15-------------15-|
A |------------------------------------------------------------------------------------------|
E |------------------------------------------------------------------------------------------|

e |-------------------------------------------------------|
B |--12-------12----------------12-------13----15--13--12-|
G |-----14----------14----12-12----12-12----12------------|
D |--------15----15----15---------------------------------|
A |-------------------------------------------------------|
E |-------------------------------------------------------|

solo

e |--------------------12--------------------------------------------------------------------|
B |--------13----15-------15-13-----12-12-------13-12----12----------------------12-12-------|
G |-----12----12----12-----------14-------14-------------------14-------------14-------14----|
D |-/14--------------------------------------14-------14----14----14----15-15-------------15-|
A |------------------------------------------------------------------------------------------|
E |------------------------------------------------------------------------------------------|

e |-------------------------------------------------------|
B |--12-------12----------------12-------13----15--13--12-|
G |-----14----------14----12-12----12-12----12------------|
D |--------15----15----15---------------------------------|
A |-------------------------------------------------------|
E |-------------------------------------------------------|

e |--------------------12------------------------------------------------------------------|
B |--------13----15-------15-13-----12-12-------13-12----12----------------------------12--|
G |-----12----12----12-----------14-------14-------------------14-------------14-----------|
D |-/14--------------------------------------14-------14----14----14----15-15----15-15-----|
A |----------------------------------------------------------------------------------------|
E |----------------------------------------------------------------------------------------|

e |------------------------------------------------------------------------|
B |----13----12---------------12-------13-------15-------13-------12-------|
G |----------------14---12-12----12-12----12-12----12-12----12-12----12----|
D |-15----15----15----15------------------------------------------------15-|
A |------------------------------------------------------------------------|
E |------------------------------------------------------------------------|


***no guitar***

repeat the guitar riffs in the chorus until the end>>>

Transcribed by Arnold Fung (17-4-1998)

|--------------- 玩 完 ---------------|
添加到谱单
X

添加到谱单

《 喜歡你 -- Beyond 》加入
◎ 选择已有谱单 创建新的

公开 (默认不公开,欢迎创建有意思的"公开谱单")

创建取消

推荐语(选填)

X

请先登录chord4


忘记密码