歌手头像-Beyond

星期天

1 2 3 4 5
x

音乐人: Beyond

供谱者:reecho
nice and easy song
no distortion/overdriven guitar
purely acoustic
that's what i call comfort ^^
best heard on sundays ^^
Legend
------
h  = hammer-on
p  = pull-off
b  = bend
r  = bend release
/  = slide up/down
5> = natural harmonic
5] = artifical harmonic
~  = vibrato
tr = trill

Intro
play this 2 times
   G               Em                Am              C
E|-----3-----3---3-----5-----5---5-|-----7-----7---7-----5-----5---5--|
B|-3-3---3-3---3---3-3---3-3---3---|-5-5---5-5---5---3-3---3-3---3----|
G|---------------------------------|----------------------------------|
D|---------------------------------|----------------------------------|
A|---------------------------------|----------------------------------|
E|---------------------------------|----------------------------------|
Verse
play two times
   G               Em                Am              C
E|-----3-----3---3-----3-----3---3-|-----3-----3---3-----3-----3---3-|
B|-3-3---3-3---3---3-3---3-3---3---|-3-3---3-3---3---3-3---3-3---3---|
G|---------------------------------|---------------------------------|
D|---------------------------------|---------------------------------|
A|---------------------------------|---------------------------------|
E|---------------------------------|---------------------------------|
   G             Em                Am              C
E|-----3-----3---3-----5-----5---5-|-----7-----7---7-----5-----5---5--|
B|-3-3---3-3---3---3-3---3-3---3---|-5-5---5-5---5---3-3---3-3---3----|
G|---------------------------------|----------------------------------|
D|---------------------------------|----------------------------------|
A|---------------------------------|----------------------------------|
E|---------------------------------|----------------------------------|
Bridge
   Bm                  C                Bm                  D            D
E|-2--------2--------|-----0----<7>---|-2--------2--------|-----0-----|-<7>-----|----3-0----|
B|---3--------3------|---3------<7>---|---3--------3------|---3-------|-<7>-----|----3-0----|
G|-----4--------4----|-0--------<7>---|-----4--------4----|-2---------|-<7>-----|--------3--|
D|-------------------|----------------|-------------------|-----------|---------|--------2--|
A|-------------------|----------------|-------------------|-----------|---------|-----------|
E|-------------------|----------------|-------------------|-----------|---------|-----------|
Repeat Verse and Bridge
Chorus
   G           Em              Am        C            G           Em
E|-x-10-x-10---x-7-10p7------|-x-5-x-5---x--8-12-10-|-x-10-x-10---x-7-10p7------|
B|-x-12-x-12---x-8------10p8-|-x-5-x-5---x--8-12-10-|-x-12-x-12---x-8------10p8-|
G|-x-12-x-12---x-9-----------|-x-5-x-5---x--9-------|-x-12-x-12---x-9-----------|
D|-x-12-x-12---x-9-----------|-x-7-x-7---x-10-------|-x-12-x-12---x-9-----------|
A|---------------------------|----------------------|---------------------------|
E|---------------------------|----------------------|---------------------------|
   Am   C
E|--5----8--|
B|--5----8--|
G|--5----9--|
D|--7---10--|
A|----------|
E|----------|
Repeat Intro, Verse, Bridge, Chorus
Solo(?)
   G                                  G   Em  Am  C   G   Em  Am  C   G
E|-----3-----3---3-----3-----3---3--|-------|-------|-------|-------|-------|
B|-3-3---3-3---3---3-3---3-3---3----|-------|-------|-------|-------|-------|
G|----------------------------------|---%---|---%---|---%---|---%---|---%---|
D|----------------------------------|-------|-------|-------|-------|-------|
A|----------------------------------|-------|-------|-------|-------|-------|
E|----------------------------------|-------|-------|-------|-------|-------|
  C       Bm      C        Bm
E|-0------|-2------|-0------|-2------|
B|-1------|-3------|-1------|-3------|
G|-0------|-4------|-0------|-4------|
D|-2------|-4------|-2------|-4------|
A|-3------|-2------|-3------|-2------|
E|--------|--------|--------|--------|

Repeat Chorus x 2
then play Intro once, that's it.
===========================

Done by Ah Tsuen (阿川) <wtho@ipoline.com>

添加到谱单
X

添加到谱单

《 星期天 -- Beyond 》加入
◎ 选择已有谱单 创建新的

公开 (默认不公开,欢迎创建有意思的"公开谱单")

创建取消

推荐语(选填)

X

请先登录chord4


忘记密码