歌手头像-Beyond

打不死

1 2 3 4 5
x

音乐人: Beyond

供谱者:reecho
This song represents the  'new' Beyond. 
This song no longer places heavy emphasis on the guitar,
instead it has a lot of other sound such as the keyboard.

So this is a very easy song to play!!!!!

intro
e |--------------------------------|
B |--------------------------------|
G |--------------------------------|
D |----6-4/5-5-4-5~-----6-4/5-5-4~-|
A |-7----------------7-------------|
E |--------------------------------| play this 3 times

--------------------------------------------------------------------------

verse 1
e |------|------|------|------|
B |------|------|------|------|
G |-4----|------|-5----|------|
D |-4----|-4----|-5----|-5----|
A |-2----|-4----|-3----|-5----|
E |------|-2----|------|-3----| play this 2 times

--------------------------------------------------------------------------

verse 2
e |------|
B |------|
G |------|
D |-9----|
A |-9----|
E |-7----| play this 4 times, then immediately play the arpeggio below

e |-----------7-----|
B |---------7---7---|
G |-------8-------8-|
D |-----9-----------|
A |---9-------------|
E |-7---------------|

--------------------------------------------------------------------------

chorus

gtr1

(the actual strumming pattern is mixed with muting 
so figure it out by listening to the CD)
e |---------|---------|---------|---------|
B |---------|---------|---------|---------|
G |-9-------|-7-------|-6-------|-5-------|
D |-9-------|-7-------|-6-------|-5-------|
A |-7-------|-5-------|-4-------|-3-------|
E |---------|---------|---------|---------| play this 2 times

gtr2
e |-----7---|---------|---------|---------|
B |---------|-----9---|-----9---|---------|
G |---9---9-|-7-9---9-|-6-9---9-|---9-9-8-|
D |-9-------|---------|---------|-9-------|
A |---------|---------|---------|---------|
E |---------|---------|---------|---------| play this 2 times

--------------------------------------------------------------------------
repeat intro part for the bridge

repeat verse1, verse2, chorus

solo : play the intro part as backing

(play this immediately after the solo)

e |-----7---|---------|---------|---------|
B |---------|-----9---|-----9---|---------|
G |---9---9-|-7-9---9-|-6-9---9-|---9-9-8-|
D |-9-------|---------|---------|-9-------|
A |---------|---------|---------|---------|
E |---------|---------|---------|---------|

then gtr1 player enters as the chorus before
--------------------------------------------------------------------------
repeat chorus for the ending

|--------------- 玩 完 ---------------|

添加到谱单
X

添加到谱单

《 打不死 -- Beyond 》加入
◎ 选择已有谱单 创建新的

公开 (默认不公开,欢迎创建有意思的"公开谱单")

创建取消

推荐语(选填)

X

请先登录chord4


忘记密码