歌手头像-Beyond

無盡空虛

1 2 3 4 5
x

音乐人: Beyond

供谱者:reecho
編配者:Ray(rayhome15@hotmail.com)



------15-----12-------------------------15-----12---------
----------15--------------------------13----15------------
-------------------14----12----14-------------------14----
----------------------------------------------------------
----------------------------------------------------------
----------------------------------------------------------

----15------12-----------------------15-----12---  
----------15-----------------------13------15----  
------------------14---12---14-------------------  
-------------------------------------------------  
-------------------------------------------------  
-------------------------------------------------  

------15-----12-------------------------15-----12---------
----------15-------------------------13-----15------------
-------------------14----12----14-------------------14----
----------------------------------------------------------
----------------------------------------------------------
----------------------------------------------------------

----15------12-----------------------------15----
----------15-----------------------13------------
------------------14---12---14-------------------
-------------------------------------------------
-------------------------------------------------
-------------------------------------------------


Am            Dm             G7               C  Em  Am
爲何在這裏     疲倦像半醉     曾在這空間   跟妳相  擁  抱

------------------------------
---1---0----------------------
-----------2---0--------------
------------------------------
------------------------------
------------------------------

        Dm               Em                 F
# 只有唏噓的追憶     無言落寞地落淚     誰在這晚裏放縱
          G7            C                      G
與他溫馨     *無盡空虛     似把刀鋒靜靜穿過心窩     woo~~
          Dm                     G          C
期待的愛     怎麼一生總不可碰倒*     woo~~# *前段solo*
Am            Dm            G7               C   Em  Am
仍然在這裏     無力像半醉     誰令我的心   此際多  冰  冷

---------------------------
-----1----0----------------
---------------2----0------
---------------------------
---------------------------
---------------------------
Repeat #

------------------------5---7---5------------------12--12--12--12--12--13---15----17----17----
---------------5---6----------------5---------------------------------------------------------
------5---7-----------------------------5---4---4---------------------------------------------
----------------------------------------------------------------------------------------------
----------------------------------------------------------------------------------------------
----------------------------------------------------------------------------------------------

---15-----13---12---13---12----------------7---8---10---8---7---------------------------------
------------------------------------------10-------------------------8--------10---10---------
--------------------------------------9-------------------------------------------------------
----------------------------------------------------------------------------------------------
----------------------------------------------------------------------------------------------
----------------------------------------------------------------------------------------------

----------------------------------------------------------------------------------------------
-----------------------5---6----------5----5--------------------------------------------------
---4--4--5---5---7-----------7-------------------------4----5---7---5---4---------------------
-----------------------------------------------------7--------------------------5------7---7--
----------------------------------------------------------------------------------------------
----------------------------------------------------------------------------------------------

---13---10--------------------------------------------------------------------15--------------
---------------12---9---10---9--------------------------------17-------15--------13-----------
------------------------------------10---7----------------------------------------------------
----------------------------------------------10-----9----------------------------------------
----------------------------------------------------------------------------------------------
----------------------------------------------------------------------------------------------

----------------------------------------------------------------------------------------------
----12--------------------12---------------------15-------------------------------------------
-----------9---10---9------------9---10---9---------------------------------------------------
----------------------------------------------------------------------------------------------
----------------------------------------------------------------------------------------------
----------------------------------------------------------------------------------------------
Repeat *
Repeat *

woo~~~ Am
         F      G        C     Em    Am
Am            F       G      C      Em    Am la  la la
la   ~~~~~~~~~~~~~~~~~~~~~~~~~~~ Am            F       G       C       Em   Am
la    la la  la       la     la      la ~~~~~~~~~~~~~~
Am            F       G        C       Em   Am
la     la   la   la    la   la    la   ~~~~~~~~~~~~~~~
添加到谱单
X

添加到谱单

《 無盡空虛 -- Beyond 》加入
◎ 选择已有谱单 创建新的

公开 (默认不公开,欢迎创建有意思的"公开谱单")

创建取消

推荐语(选填)

X

请先登录chord4


忘记密码