歌手头像-Beyond

无尽空虚

1 2 3 4 5
x

音乐人: Beyond

供谱者:reecho
無盡空虛 guitar tab #be-1

This is an easy song. But if you don't have effects like reverb, delay, and chorus, 
the song will be very dull and less "colourful".

/ == slide
p == pulling off
h == hammering on
^ == bend

Intro: distored guitar with reverb and slighly delay.
       nylon guitar plays the rhythm.

   Am7                     Dm
e |-15----12--------------|15----12-----|
B |----15----14~-------13-|---15----14~-|
G |--------------12h14----|-------------|
D |-----------------------|-------------|
A |-----------------------|-------------|
E |-----------------------|-------------|

   G                       G
e |-15----12--------------|15----12~----|
B |----15----14~-------13-|---15--------|
G |--------------12h14----|-------------|
D |-----------------------|-------------|
A |-----------------------|-------------|
E |-----------------------|-------------|

   Am7                     Dm
e |-15----12--------------|15----12-----|
B |----15----14~-------13-|---15----14~-|
G |--------------12h14----|-------------|
D |-----------------------|-------------|
A |-----------------------|-------------|
E |-----------------------|-------------|

   G                       G
e |-15----12--------------|15~~~~-------|
B |----15----14~-------13-|-------------|
G |--------------12h14----|-------------|
D |-----------------------|-------------|
A |-----------------------|-------------|
E |-----------------------|-------------|

verse 1: clean guitar with reverb

   Am         Dm         G          C   Em Am
e |-0--------|-1--------|-3--------|-0--0--0--|
B |-1--------|-3--------|-0--------|-1--0--1--|
G |-2--------|-2--------|-0--------|-0--0--2--|
D |-2--------|-0--------|-0--------|-2--2--2--|
A |-0--------|-0--------|-2--------|-3--2--0--|
E |-0--------|----------|-3--------|-0--0--0--|

verse 2: clean guitar again

   C          Dm7       Em7       F        G
e |----------|------8--|------10--|-1------|-3----|
B |---play---|-6----6--|-8----8---|-1--0-1-|-3----|
G |-nothing--|---5--5--|---7--7---|-2--2-2-|-4----|
D |---here---|------9--|------9---|-3------|-5----|
A |----------|------6--|------7---|-3------|-5----|
E |----------|------6--|------7---|-1------|-3----|

chorus: clean guitar plays the fill in
        acoustic guitar plays the rhythm

clean guitar
   C          C         G          G      Dm     Dm     G       G
e |-0--------|-0-------|-3--------|------|-5----|---5--|-3-----|-3----|
B |-1--------|-1-------|-3--------|------|-6----|-6----|-3-----|-3----|
G |-0--------|-0-------|-4--------|------|-7----|------|-4-----|-4----|
D |-2--------|-2-------|-5--------|------|-7----|------|-5-----|-5----|
A |-3--------|-3-------|-5--------|---5--|-5----|------|-5-----|-5----|
E |-0--------|-0-------|-3--------|-3----|-5----|------|-3-----|-3----|

repeat the intro

verse 1: acoustic guitar plays the rhythm
         nylon guitar plays the fill in

   Am         Dm         G          C   Em Am
e |-0--------|-1--------|-3--------|-0--0--0--|
B |-1--------|-3--------|-0--------|-1--0--1--|
G |-2--------|-2--------|-0--------|-0--0--2--|
D |-2--------|-0--------|-0--------|-2--2--2--|
A |-0--------|-0--------|-2--------|-3--2--0--|
E |-0--------|----------|-3--------|-0--0--0--|

nylon guitar
   Am         Dm          G         C   Em Am
e |----------|-1p0-------|---------|-0--0--0--|
B |----------|-----1-1/2~|---------|-1--0--1--|
G |----------|-----------|---------|-0--0--2--|
D |----------|-----------|---------|-2--2--2--|
A |----------|-----------|---------|-3--2--0--|
E |----------|-----------|---------|-0--0--0--|

verse 2: clean guitar with nylon guitar fill in

   C          Dm7       Em7       F        G
e |----------|------8--|------10--|-1------|-3----|
B |---play---|-6----6--|-8----8---|-1--0-1-|-3----|
G |-nothing--|---5--5--|---7--7---|-2--2-2-|-4----|
D |---here---|------9--|------9---|-3------|-5----|
A |----------|------6--|------7---|-3------|-5----|
E |----------|------6--|------7---|-1------|-3----|
   
nylon guitar
   C
e |-------------|
B |-------------|
G |-/5-4--------|
D |------7-5----|
A |----------5~-|
E |-------------|

chorus: repeat the chorus above

guitar solo: acoustic guitar and reverb distored guitar

acoustic guitar

e |-----0-5-5/7-5-0-------|----12-12-12-12-12-13-|-15-15/17-17-17--17-15-13-|
B |---1-------------4-1/3-|-3~-------------------|--------------------------|
G |-2---------------------|----------------------|--------------------------|
D |-----------------------|----------------------|--------------------------|
A |-----------------------|----------------------|--------------------------|
E |-----------------------|----------------------|--------------------------|

e |-12-13-12----------------------|-------------------------------|
B |----------------12-13-15-13-12-|-------------------------------|
G |-------------14----------------|-14--14-14-14----------9-10----|
D |----------14-------------------|---------------9-10-12------12-|
A |-------------------------------|-------------------------------|
E |-------------------------------|-------------------------------|

e |-------------------|-------------------|-13--------------------------|
B |-------------------|--------------10---|----15-12--------------------|
G |-9--9-9-9--------9-|-------------------|----------13-12--------------|
D |--------------12---|-10-10/12--10----9-|----------------15-14-12-14~-|
A |-----------12------|-------------------|-----------------------------|
E |-------------------|-------------------|-----------------------------|

distored guitar with reverb and delay.

   F               G             Dm            G
e |---------15----|-------------|-------------|----------|
B |-15^--15----13-|-12~---------|-12~---------|-12/15~~~-|
G |---------------|-------------|-------------|----------|
D |---------------|----14-15-14-|----14-15-14-|----------|
A |---------------|-------------|-------------|----------|
E |---------------|-------------|-------------|----------|

repeat chorus 2 times

(ending rhythm, repeat until fade out)
|Am      |F      |G      |C Em Am |

ending guitar fill in (play while the acoustic guitar plays the rhythm)
(match the timeing by youself...duh!!!)

e |-15^--15-13-12-13-12~~-|
B |-----------------------|
G |-----------------------|
D |-----------------------|
A |-----------------------|
E |-----------------------|

e |-----------------------|
B |-15^--15^15--15~~~~~---|
G |-14^--14^14--14~~~~~---|
D |-----------------------|
A |-----------------------|
E |-----------------------|

e |------------------------------------|
B |-------12-13-12----12-13-12---------|
G |----14----------14----------14~~~~--|
D |-14---------------------------------|
A |------------------------------------|
E |------------------------------------|

Transcribed by Jan Wong(5-18-96)

|--------------------- The End -------------------------------------|

添加到谱单
X

添加到谱单

《 无尽空虚 -- Beyond 》加入
◎ 选择已有谱单 创建新的

公开 (默认不公开,欢迎创建有意思的"公开谱单")

创建取消

推荐语(选填)

X

请先登录chord4


忘记密码