歌手头像-Beyond

曾是擁有

1 2 3 4 5
x

音乐人: Beyond

供谱者:reecho
曲/詞:黃家駒 
編:BEYOND
編配者: Steve仔 (steve4u@hkbn.net)
-------------------------------------------------------------------
Intro:
| A | E |F#m| E | x2

Verse 1:
  A             E     F#m       E
無邊的空虛涌上心間 只感到呆坐強忍淚流
  A             E     F#m       E
從不懂收起心裏的真 此刻我還是強裝自然

Verse 2:
    Bm            F#m
曾在午夜沉醉 一切多麼的美好
    Bm          E
無奈我在慚愧這欺騙

Chorus:
    A           E       F#m     E
擁有命運 給我驚喜 不知道也添顧慮
    A           E       F#m       E
忍痛話別但心裏悲傷 只知道 曾是擁有

Bridge:
| A | E |F#m| E |

Verse 1:
  A             E     F#m       E
平分的戀火一剎消失 終止了情在兩方蔓延
  A             E     F#m       E
曾孤單的心一再孤單 這一切留代記憶失去

Repeat Verse 2 & Chorus

Solo:
E|---------------------|
B|------------7--------|
G|-6~~------6----------|
D|------7-9-----6~-8~--|
A|---------------------|
E|---------------------|

   B                   F#                G#m               F#
E|-------------------|-----------------|-----------------|-------------|
B|---------7---------|-----------------|-----------------|-------------|
G|-8~--8-9---9-8p9h8-|-6~--6-8-9-8-4/6-|-4~--4-6-6/8-6-4-|-3h4-3-------|
D|-------------------|-----------------|-----------------|-------6-4~--|
A|-------------------|-----------------|-----------------|-------------|
E|-------------------|-----------------|-----------------|-------------|

   B                     F#                G#m               F#
E|---------------------|-----------------|-----------------|-------------|
B|-----------7---------|-----------------|-----------------|-------------|
G|-6/8~--8-9---9-8p9h8-|-6~--6-8-9-8-4/6-|-4~--4-6-6/8-6-4-|-3h4-3-------|
D|---------------------|-----------------|-----------------|-------6-4~--|
A|---------------------|-----------------|-----------------|-------------|
E|---------------------|-----------------|-----------------|-------------|

* Change to B key *

Verse 2:
    C#m           G#m
曾在午夜沉醉 一切多麼的美好
    C#m         F#
無奈我在慚愧這欺騙

Chorus:
    B           F#      G#m     F#
擁有命運 給我驚喜 不知道也添顧慮
    B           F#      G#m       F#
忍痛話別但心裏悲傷 只知道 曾是擁有

Repeat Chorus until fade-out !
F#m
╓———┬—●—┬———┬———┐ 
╟———┼—●—┼———┼———┤ 
╟———┼—●—┼———┼———┤ 
╟———┼—●—┼———┼—●—┤ 
╟———┼—●—┼———┼—●—┤ 
╙———┴—●—┴———┴———┘ 
C#m=#Cm(4)
╓—4—┬———┬———┬———┐ 
╟—●—┼—●—┼———┼———┤ 
╟—●—┼———┼—●—┼———┤ 
╟—●—┼———┼—●—┼———┤ 
╟—●—┼———┼———┼———┤ 
╙—x—┴———┴———┴———┘
G#m=#Gm
╓—4—┬———┬———┬———┐ 
╟—●—┼———┼———┼———┤ 
╟—●—┼———┼———┼———┤ 
╟—●—┼———┼—●—┼———┤ 
╟—●—┼———┼—●—┼———┤ 
╙—●—┴———┴———┴———┘ 

F#
╓———┬—●—┬———┬———┐ 
╟———┼—●—┼———┼———┤ 
╟———┼—●—┼—●—┼———┤ 
╟———┼—●—┼———┼—●—┤ 
╟———┼—●—┼———┼—●—┤ 
╙———┴—●—┴———┴———┘

添加到谱单
X

添加到谱单

《 曾是擁有 -- Beyond 》加入
◎ 选择已有谱单 创建新的

公开 (默认不公开,欢迎创建有意思的"公开谱单")

创建取消

推荐语(选填)

X

请先登录chord4


忘记密码