歌手头像-Beyond

真的愛你

1 2 3 4 5
x

音乐人: Beyond

供谱者:reecho
曲:黃家駒
詞:小美
編:Beyond
結他編譜:火柴/Chris Siu(kakui93@hotmail.com)
---------------------------------------------------------
Intro

              C           G              Am            F
e |----------|--------------------------|-------------------------|
B |----13-15-|-15^+--^15--13-15~--15^15-|-13--12-13-12------13-15-|
G |-12-------|--------------------------|--------------14~--------|
D |----------|--------------------------|-------------------------|
A |----------|--------------------------|-------------------------|
E |----------|--------------------------|-------------------------|

   C              G7            C                                
e |-----------------------------|----------15-------15-----------|
B |-15^+--^15--13-15~--15-13-12-|-13----13----12-13--------13-15-|
G |-----------------------------|----12-----------------12-------|
D |-----------------------------|--------------------------------|
A |-----------------------------|--------------------------------|
E |-----------------------------|--------------------------------|

   C           G              Am            F           
e |--------------------------|-------------------------|
B |-15^+--^15--13-15~--15^15-|-13--12-13-12------13-15-|
G |--------------------------|--------------14~--------|
D |--------------------------|-------------------------|
A |--------------------------|-------------------------|
E |--------------------------|-------------------------|

 C
|---------------------------------------|
|-15^+--^15--13-15~--15-13-12-----------|
|------------------------------12-10-9~-|
|---------------------------------------|
|---------------------------------------|
|---------------------------------------|


     C         G       Am          F
無法可修飾的一對手  帶出溫暖永遠在背後
    C             G           C
縱使囉蘇始終關注  不動珍惜太內咎 
      C         G       Am          F
沉醉於音階她不讚賞  母親的愛卻永未退讓
    C             G           C
決心衝開心中掙扎  親恩終可報答 
    F           G       F           G
春風化雨暖透我的心  一生眷顧無言地送贈 

    C           G       Am        F
是妳多麼溫馨的目光  教我堅毅望著前路 
    C   G       C
叮嚀我跌倒不應放棄
    C             G       Am      F 
沒法解釋怎可報盡親恩  愛意寬大是無限
    C   G       C
請準我說聲真的愛妳


Middle Part solo

   C                              G
e |-12----12----13----15----13----12--------------------|
B |----13----13----13----13----13----13--12-13-12-------|
G |-----------------------------------------------14-12-|
D |-----------------------------------------------------|
A |-----------------------------------------------------|
E |-----------------------------------------------------|

   Am               F            C                         G
e |-----------------------------|---------------------------------------------------|
B |-----------------------------|---------------------------------------------------|
G |-12H14~--12-10-9-------------|------------12-10-9H10p9-------------12-10-9H10p9--|
D |-----------------12-10-9-10~-|----10-9-10------------------10-9-10---------------|
A |-----------------------------|-10-----------------------10-----------------------|
E |-----------------------------|---------------------------------------------------|
   
   C                               C        G         Am                    F
e |-------------------------------|------------------|----------------------------------|
B |-------------------------------|------------------|----------------------------------|
G |--------------------------9----|-12~--12^12--10---|-9-10-9-10-9----------------------|
D |-10~-----------10-9-12-10---12-|------------------|-------------12-10-9--9-----------|
A |------17/12-10-----------------|------------------|------------------------10-12-12~-|
E |-------------------------------|------------------|----------------------------------|

   C                       F                        
e |------------------------------------------12-13-|
B |------------------------------10-12-13-15-------|
G |------------9H10p9----9-10-12-------------------|
D |----9-10-12--------12---------------------------|
A |-12---------------------------------------------|
E |------------------------------------------------|
 
    C                                                      
   |-12~------13----15----17----15----12~-13~-12~-13~-13~-| 
   |------/13----13----13----13----13---------------------| 
   |------------------------------------------------------| 
   |------------------------------------------------------| 
   |------------------------------------------------------| 
   |------------------------------------------------------| 
                                                        

      C         G       Am          F
無法可修飾的一對手  帶出溫暖永遠在背後
    C             G           C
縱使囉蘇始終關注  不動珍惜太內咎
      C         G       Am          F
仍記起溫馨的一對手  始終給我照顧未變樣
    C             G           C 
理想今天終於等到  分享光輝盼做到
    F           G       F           G
春風化雨暖透我的心  一生眷顧無言地送贈 

    C           G       Am        F
是妳多麼溫馨的目光  教我堅毅望著前路 
    C   G       C
叮嚀我跌倒不應放棄
    C             G       Am      F 
沒法解釋怎可報盡親恩  愛意寬大是無限
    C   G       C
請準我說聲真的愛妳

    F           G       F           G
春風化雨暖透我的心  一生眷顧無言地送贈 

    C           G       Am        F
是妳多麼溫馨的目光  教我堅毅望著前路 
    C   G       C
叮嚀我跌倒不應放棄
    C             G       Am      F 
沒法解釋怎可報盡親恩  愛意寬大是無限
    C   G       C
請準我說聲真的愛妳
    C           G       Am        F
是妳多麼溫馨的目光  教我堅毅望著前路 
    C   G       C
叮嚀我跌倒不應放棄
    C             G       Am      F 
沒法解釋怎可報盡親恩  愛意寬大是無限
    C   G       C
請準我說聲真的愛妳

Ending Solo

e |----------------------------------------------3-3/15-13-12-----------|
B |---1-2-2^-2^2-1-1H2-2^2-1-0-1-1----1-2-2^-3/4------------------------|
G |-0------------------------------2~-----------------------------------|
D |---------------------------------------------------------------------|
A |---------------------------------------------------------------------|
E |---------------------------------------------------------------------|

e |------------------------------------------------------
B |-15-13-12-13-15^--13-15-15^-15^15-13-15-15^^^-15-13-12
G |------------------------------------------------------
D |------------------------------------------------------
A |------------------------------------------------------
E |------------------------------------------------------

   -------------------------------------------------| 
   -----13-15-15^-15^15-13-15--15-13-12-13----------| 
   -14~------------------------------------12-10-9~-| 
   -------------------------------------------------| 
   -------------------------------------------------| 
   -------------------------------------------------| 

添加到谱单
X

添加到谱单

《 真的愛你 -- Beyond 》加入
◎ 选择已有谱单 创建新的

公开 (默认不公开,欢迎创建有意思的"公开谱单")

创建取消

推荐语(选填)

X

请先登录chord4


忘记密码