歌手头像-Beyond

真的爱你

1 2 3 4 5
x

音乐人: Beyond

供谱者:reecho
真的愛你 guitar tabs #b4-1

This is one of the Beyond's commerical songs and made a big hit in Hong Kong few years ago.
 Except the guitar solo, this song is very easy to play. The chord progression is real simple.
Distored electric guitar here is only used for solo part. 
The whole song is dominated by acoustic guitar and heavy bass guitar riffs. 
Please also check out the bass guitar tablature of this song. 
The tempo of this song is about 76-80, and is written in a C major.
Practise this song and play it to your mom!

?
/   == slide
p   == pulling off
H   == hammering on
~   == vibrato
^   == bent
^7  == pre-bent
7^7 == bent and release
^+  == bent and hold



Intro: electric guitar play the solo (guitar 2 counterpoint is omitted)
       acoustic guitar follow the chords and play the rhythm 

              C           G              Am            F
e |----------|--------------------------|-------------------------|
B |----13-15-|-15^+--^15--13-15~--15^15-|-13--12-13-12------13-15-|
G |-12-------|--------------------------|--------------14~--------|
D |----------|--------------------------|-------------------------|
A |----------|--------------------------|-------------------------|
E |----------|--------------------------|-------------------------|

?   C              G7            C                                
e |-----------------------------|----------15-------15-----------|
B |-15^+--^15--13-15~--15-13-12-|-13----13----12-13--------13-15-|
G |-----------------------------|----12-----------------12-------|
D |-----------------------------|--------------------------------|
A |-----------------------------|--------------------------------|
E |-----------------------------|--------------------------------|

   C           G              Am            F           
e |--------------------------|-------------------------|
B |-15^+--^15--13-15~--15^15-|-13--12-13-12------13-15-|
G |--------------------------|--------------14~--------|
D |--------------------------|-------------------------|
A |--------------------------|-------------------------|
E |--------------------------|-------------------------|
  
  C                                        
  ---------------------------------------| 
  -15^+--^15--13-15~--15-13-12-----------| 
  ------------------------------12-10-9~-| 
  ---------------------------------------| 
  ---------------------------------------| 
  ---------------------------------------| 
?
Verse: only acoustic guitar

   C         G        Am        F        C         G        C
e |------------------|----------------1-|------------------|-----------|
B |-------1--------0-|-------1------1---|-------1--------0-|-------1---|
G |-----0--------0---|-----2------2-----|-----0--------0---|-----0---0-|
D |---2--------0-----|---2------3-------|---2--------0-----|---2-------|
A |-3----------------|-0----------------|-3----------------|-3---------|
E |----------3-------|------------------|----------3-------|-----------|

    C         G        Am        F        C         G        C
e |------------------|----------------1-|------------------|-----------|
B |-------1--------0-|-------1------1---|-------1--------0-|-------1---|
G |-----0--------0---|-----2------2-----|-----0--------0---|-----0---0-|
D |---2--------0-----|---2------3-------|---2--------0-----|---2-------|
A |-3----------------|-0----------------|-3----------------|-3---------|
E |----------3-------|------------------|----------3-------|-----------|

   F         G        F         G        
e |-------1--------1-|-------1--------1------1-|
B |-----1--------0---|-----1--------0---0----0-|
G |---2--------0-----|---2--------0-------0--0-|
D |------------------|-----------------------0-|
A |------------------|-----------------------2-|
E |-1--------3-------|-1--------3------------3-|

?
guitar rhythm:
then acoustic guitar play rhythm as the following

|C     G     |Am    F     |C     G     |C          |
|C     G     |Am    F     |C     G     |C          |


then electric guitar play the solo with acoustic guitar play the backing rhythm

              C           G              Am            F
e |----------|--------------------------|-------------------------|
B |----13-15-|-15^+--^15--13-15~--15^15-|-13--12-13-12------13-15-|
G |-12-------|--------------------------|--------------14~--------|
D |----------|--------------------------|-------------------------|
A |----------|--------------------------|-------------------------|
E |----------|--------------------------|-------------------------|

   C              G7            C                                
e |-----------------------------|-------15~-|
B |-15^+--^15--13-15~--15-13-12-|----13-----|
G |-----------------------------|-12--------|
D |-----------------------------|-----------|
A |-----------------------------|-----------|
E |-----------------------------|-----------|

repeat the verse once again and the electric guitar solo enters.

   C                              G
e |-12----12----13----15----13----12--------------------|
B |----13----13----13----13----13----13--12-13-12-------|
G |-----------------------------------------------14-12-|
D |-----------------------------------------------------|
A |-----------------------------------------------------|
E |-----------------------------------------------------|

?   Am               F            C                         G
e |-----------------------------|---------------------------------------------------|
B |-----------------------------|---------------------------------------------------|
G |-12H14~--12-10-9-------------|------------12-10-9H10p9-------------12-10-9H10p9--|
D |-----------------12-10-9-10~-|----10-9-10------------------10-9-10---------------|
A |-----------------------------|-10-----------------------10-----------------------|
E |-----------------------------|---------------------------------------------------|
   
   C                               C        G         Am                    F
e |-------------------------------|------------------|----------------------------------|
B |-------------------------------|------------------|----------------------------------|
G |--------------------------9----|-12~--12^12--10---|-9-10-9-10-9----------------------|
D |-10~-----------10-9-12-10---12-|------------------|-------------12-10-9--9-----------|
A |------17/12-10-----------------|------------------|------------------------10-12-12~-|
E |-------------------------------|------------------|----------------------------------|

    C                       F                       
e |------------------------------------------12-13-|
B |------------------------------10-12-13-15-------|
G |------------9H10p9----9-10-12-------------------|
D |----9-10-12--------12---------------------------|
A |-12---------------------------------------------|
E |------------------------------------------------|

 C                                                      
 -12~------13----15----17----15----12~-13~-12~-13~-13~-| 
 ------/13----13----13----13----13---------------------| 
 ------------------------------------------------------| 
 ------------------------------------------------------| 
 ------------------------------------------------------| 
 ------------------------------------------------------| 


repeat the acoustic guitar rhythm til the end

ending solo:

e |----------------------------------------------3-3/15-13-12-----------|
B |---1-2-2^-2^2-1-1H2-2^2-1-0-1-1----1-2-2^-3/4------------------------|
G |-0------------------------------2~-----------------------------------|
D |---------------------------------------------------------------------|
A |---------------------------------------------------------------------|
E |---------------------------------------------------------------------|

e |------------------------------------------------------
B |-15-13-12-13-15^--13-15-15^-15^15-13-15-15^^^-15-13-12
G |------------------------------------------------------
D |------------------------------------------------------
A |------------------------------------------------------
E |------------------------------------------------------
 
 -------------------------------------------------|   
 -----13-15-15^-15^15-13-15--15-13-12-13----------|   
 -14~------------------------------------12-10-9~-|   
 -------------------------------------------------|   
 -------------------------------------------------|   
 -------------------------------------------------|   


Transcribed by Jan Wong (2-21-96)


|--------------------- The --------------- End -------------------------------------------|
添加到谱单
X

添加到谱单

《 真的爱你 -- Beyond 》加入
◎ 选择已有谱单 创建新的

公开 (默认不公开,欢迎创建有意思的"公开谱单")

创建取消

推荐语(选填)

X

请先登录chord4


忘记密码