歌手头像-Beyond

時日無多

1 2 3 4 5
x

音乐人: Beyond

供谱者:reecho
曲: 黃家強   
詞: 黃家強

Intro :

A, C#m, Bm -->continue to below....

  D          A             C#m           Bm            D
|-2-2-3-2--------------------4-------------2-----------2-2-3-2---|
|-3-3----3-------------------5-5h7-5-------3-3h5-3-----3-3----3--|
|-2-2-----2--Play A chord----6------4------4------2----2-2-----2-|
|-0-0----------------------6-6-------6---4-4-------4---0-0-------|
|--------------------------4-4-----------2-2---------------------|
|----------------------------------------------------------------|

|-7h9-7h9p7-7---------7-------------------------------------------|
|----------7-7-10--10---------------------------------------------|
|-----------------------------------------------------------------|
|------------------------------7-9-9/11--97-9/11--11^11-97h9-7--|
|--------------------------7-9------------------------------------|
|-----------------------------------------------------------------|

|-7h9-7h9p7-7-----------------------------------------------------|
|----------7-7-10--10-7-10----------------------------------------|
|-----------------------------------------------------------------|
|------------------------------7-9-9/11--97-9/11--11^11-97h9-7--|
|--------------------------7-9------------------------------------|
|-----------------------------------------------------------------|

A            C#m           Bm
聽說過這世界於不久的一刻將失去光
D         A
風沙將天掩蓋
            C#m           Bm
似說笑這世界於不久的一刻便到末日
D           F#m
你可會將心釋放

        C#m
* 鏡裏你是誰人
Bm             C#m
 看看你掛念著是誰人
D              C#m
 錯過了  你要珍惜今天
D      E
 你要把它抓緊 *

 |----------|
 |----------|
 |--2-4p2-2-|
 |-4-----4--|
 |----------|
 |----------|

 A      C#m
# 時日無多
Bm     C#m
 無論人生滿是錯
A      C#m Bm
 時日無多的你
       E         A
 會否去改寫今生去向 #

 A            C#m           Bm
 到了你會發覺將心中的抑鬱都驅散開
 D         A
 那怕會無未來
             C#m           Bm
 到了你已看透將心底的私心換了關心
 D           F#m
 世間已得到真愛
 
 Repeat * #

D            C#m
 假使天傾側令夢也活埋
Bm     E
 將有限換作和諧
 
 Repeat # #
Bm 
╓———┬—●—┬———┬———┐ 
╟———┼—●—┼—●—┼———┤ 
╟———┼—●—┼———┼—●—┤ 
╟———┼—●—┼———┼—●—┤ 
╟———┼—●—┼———┼———┤ 
╙———┴—●—┴———┴———┘ 
C#m=#Cm(4)

╓—4—┬———┬———┬———┐ 
╟—●—┼—●—┼———┼———┤ 
╟—●—┼———┼—●—┼———┤ 
╟—●—┼———┼—●—┼———┤ 
╟—●—┼———┼———┼———┤ 
╙—x—┴———┴———┴———┘
F#m
╓———┬—●—┬———┬———┐ 
╟———┼—●—┼———┼———┤ 
╟———┼—●—┼———┼———┤ 
╟———┼—●—┼———┼—●—┤ 
╟———┼—●—┼———┼—●—┤ 
╙———┴—●—┴———┴———┘ 





添加到谱单
X

添加到谱单

《 時日無多 -- Beyond 》加入
◎ 选择已有谱单 创建新的

公开 (默认不公开,欢迎创建有意思的"公开谱单")

创建取消

推荐语(选填)

X

请先登录chord4


忘记密码