歌手头像-Beyond

海闊天空

1 2 3 4 5
x

音乐人: Beyond

供谱者:万能的小钙 | weibo
作詞:黃家駒
作曲:黃家駒
編配者:kakui93@hotmail.com 
------------------------------------------------------------------
Key=F


Bb-113331
╓—●—┬———┬———┬———┐ 
╟—●—┼———┼—●—┼———┤ 
╟—●—┼———┼—●—┼———┤ 
╟—●—┼———┼—●—┼———┤ 
╟—●—┼———┼———┼———┤ 
╙—●—┴———┴———┴———┘


    F      C              Dm              Bb
今天我 寒夜裏看雪飄過 懷著冷卻了的心窩飄遠方
    F         C
風雨裏追趕 霧裏分不清影蹤
    Bb             F
天空海闊你與我 可會變 (誰沒在變)
    F      C              Dm              Bb
多少次 迎著冷眼與嘲笑 從沒有放棄過心中的理想
    F         C
一剎那恍惚 若有所失的感覺
    Bb             F
不知不覺已變淡 心裏愛 (誰明白我)

     Bb      C       F     Bb       C       F
 原諒我這一生不羈放縱愛自由 也會怕有一天會跌倒
Bb       C      F Am Dm Bb          C     F
 背棄了理想 誰人都可以  那會怕有一天只你共我

Dm   C       Bb    C       Dm C    F
 仍然自由自我  永遠高唱我歌  走遍千里


Middle part solo

Bb         C       Dm              Bb         C      F             Bb

e |-----------------|----------------|-----------------|-17~~--------|-------------------|
B |-----------13-15-|----------------|-----------13-15-|-------------|------------13-15--|
G |-14~-12-14-------|-14~(12/14/12~)-|-14~-12-14-------|---(12/14/12)|-14~--12-14--------|
D |-----------------|----------------|-----------------|-------------|-------------------|
A |-----------------|----------------|-----------------|-------------|-------------------|
E |-----------------|----------------|-----------------|-------------|-------------------|

   Dm                             Gm
e|------------------------15-17-|-17~-15~-----(15/17~)------17-15----------|
B|----(15~17~18~)---13-15-------|--------15~----------13-15-------15~---13-|
G|-14---------------------------|---------------------------------------12-|
D|------------------------------|---------------------------------------14-|
A|------------------------------|------------------------------------------|
E|------------------------------|------------------------------------------|

   D                      D               Dm
e|----------------------|--------------------------------|
B|-15-------8p7---------|-8p7----------------------------|
G|-14-----------7-------|-----7-----------7--------------|
D|-16-------------7-----|-------7-----------------12//---|
A|----------------------|---------10p9h10---------12//---|
E|----------------------|--------------------------------|

Ending solo

e |----------------------|---------------------------------------20----20----|
B |-------------13-15----|---------------13-15-20^^-20-----18-20----20----20-|
G |-/14---12-14-------14-|----14---12-14---------------17--------------------|
D |----------------------|---------------------------------------------------|
A |----------------------|-15------------------------------------------------|
E |----------------------|---------------------------------------------------|

e |----------------13-15^---15-13-15^^^^-|
B |----------13-15-----------------------|
G |-14-14-15-----------------------------|
D |--------------------------------------|
A |--------------------------------------|
E |--------------------------------------|

e |----------------------------------------------|--------------------------|
B |----------------------------------------------|--------------------------|
G |----------------------------------------------|--------------------------|
D |-15-14-15----15-17-15-14-15----15-17-15-17/19-|--------14-15-------------|
A |----------17----------------17----------------|-/15-17--------/12-13-12~-|
E |----------------------------------------------|--------------------------|

e |----------------------------------|--------------------------------------------------|
B |----------------------------------|------------13-15-15^^---15p13--------------------|
G |-------------10----10-12-10-12/14-|-14---12-14--------------------14-12-------12-----|
D |-------10-12----12----------------|-------------------------------------15-12----15~-|
A |-12-13----------------------------|--------------------------------------------------|
E |----------------------------------|--------------------------------------------------|

e |------------------15^^-15-13-12-13----12----|----------20-20-------13----------|
B |------------13-15------------------15----13-|-18-18-20---------15^----15-13-15-|
G |-14---12-14---------------------------------|----------------------------------|
D |--------------------------------------------|----------------------------------|
A |--------------------------------------------|----------------------------------|
E |--------------------------------------------|----------------------------------|

e |----------------------------|------------------------------------------|
B |----------------------------|-----------------------------13-15-12^-10-|
G |-/14--12-10-12^--10-9-10~~~-|-------9-10-12-12/14---12-14--------------|
D |----------------------------|-10-12------------------------------------|
A |----------------------------|------------------------------------------|
E |----------------------------|------------------------------------------|

e |---------------------------------|----------------------------|
B |-----------10-13-----------------|-------13-15-13--15^~~~~~~~-|
G |-12-10-12^-------^12-10----12/14-|-12-14----------------------|
D |------------------------10-------|----------------------------|
A |---------------------------------|----------------------------|
E |---------------------------------|----------------------------|

添加到谱单
X

添加到谱单

《 海闊天空 -- Beyond 》加入
◎ 选择已有谱单 创建新的

公开 (默认不公开,欢迎创建有意思的"公开谱单")

创建取消

推荐语(选填)

X

请先登录chord4


忘记密码