歌手头像-許巍

青鳥II

1 2 3 4 5
x

音乐人: 許巍

供谱者:reecho
編配者: Shawn(提供)
-------------------------------------------------------------------

前奏:
E§-------------------------------------------------|  
B§-0----0---0----0----0------0----0------0---0-----|
G§-4----|-4-|-4--3----|-3-3⌒1----|-1-1⌒3-----3-3-|
D§-4--4-|-|-|-|--4--4-|-4-4⌒2--2-|-2-2⌒4-4---4-4-|
A§-4--|-|-|-|-|--4--|-|-4-4⌒2--|-|-2-2⌒4-|---4-4-|
E§-|--|-|-|-|-|--|--|-|-|-|-----|-|-|-|--|-|---|---|
  |-------------------------------------------------§
  |-0----0---0----0----0------0----0------0---0-----§
  |-4----|-4-|-4--3----|-3-3⌒1----|-1-1⌒3-----3-3-§
  |-4--4-|-|-|-|--4--4-|-4-4⌒2--2-|-2-2⌒4-4---4-4-§
  |-4--|-|-|-|-|--4--|-|-4-4⌒2--|-|-2-2⌒4-|---4-4-§
  |-|--|-|-|-|-|--|--|-|-|-|-----|-|-|-|--|-|---|---§

E§--------------------------------------------------|
B§-0----0---0----0--0-0--------0------0-----0-------|
G§-4----|-4-|-4--3--3-3---1----|-1-1⌒3-----|-3-3~4-|
D§-4--4-|-|-|-|--4--4-4---2--2-|-2-2⌒4--4--|-4-4---|
A§-4--|-|-|-|-|--4--4-4---2--|-|-2-2⌒4--|--|-4-4---|
E§-|--|-|-|-|-|--|--|-|------|-|-|-|--|--|--|-|-|---|
  |-------------------------------------------------§
  |-0----0---0----0--0-0--------0------0-----0------§
  |-4----|-4-|-4--3--3-3---1----|-1-1⌒3-----|-3-3--§
  |-4--4-|-|-|-|--4--4-4---2--2-|-2-2⌒4--4--|-4-4--§
  |-4--|-|-|-|-|--4--4-4---2--|-|-2-2⌒4--|--|-4-4--§
  |----|-|-|-|-|--|--|-|------|-|-|-|--|--|--|-|-|--§(滑向E)

這秋天午後   明媚的  陽光    伴着我漫無   目的的  飛翔
我穿過曾經   破滅的  幻想    我身邊所有   冰冷的  目光

E             #F          E      #F   E             #F        E       #F
我的每個幻想  總在每一個秋天飛翔      我的每個悲傷  總在每一個夜裏生長
我的每次飛翔  總在漫無目的的路上      我的每次歌唱  總在每一個夜裏飄蕩

E          #F             E       E            #F
秋天明媚的陽光    依然照耀着我    那遙遠無盡的幻想

E          #F             E       E            #F   E   #F    E
秋天明媚的陽光    依然照耀着我    那遙遠無盡的傷悲
添加到谱单
X

添加到谱单

《 青鳥II -- 許巍 》加入
◎ 选择已有谱单 创建新的

公开 (默认不公开,欢迎创建有意思的"公开谱单")

创建取消

推荐语(选填)

X

请先登录chord4


忘记密码