歌手头像-Beyond

早班火車

1 2 3 4 5
x

音乐人: Beyond

供谱者:reecho
作詞:林振強
作曲:黃家駒.黃家強.黃貫中
编配者:LoveYan's Jim


Gmaj7       A       F#          Bm
天天清早最歡喜  在這火車中再重逢妳
    G         A     F#        B
迎著妳那似花氣味  難定下夢醒日期
Gmaj7       A       F#          Bm
玻璃窗把妳反映  讓眼晴可一再纏綿妳
    G         A     F#        B
無奈妳那會知我在  凝望著萬千傳奇

       Gmaj7     A             F#        Bm
*願永不分散  祈求路軌當中永沒有終站  Woo-Oh
       Gmaj7     A             F#          G A D
 盼永不分散  仍然幻想一天我是妳終站  妳輕倚我臂彎

Gmaj7       A       F#          Bm
火車嗚嗚那聲響  在耳邊偏偏似柔柔唱
    G         A     F#        B
難道妳教世間漂亮  和默令夢境漫長

重唱 *

Gmaj7
多渴望告訴妳知  心裏面我那意思
D     G           A B
多渴望可得到妳的那注視
      Gmaj7
又再等一個站看妳意思  三個站盼妳會知
D     G           A
千個站妳卻似仍未曾知


Intro :

e |-------14-|-------12-|-------12-|-------10-|-----10-|-----9-|-----9---|
B |----15----|----15----|----10----|----10----|---8----|---8---|---7-----|
G |-12-------|-12-------|-11-------|-11-------|-9------|-9-----|-9-------|
D |----------|----------|----------|----------|--------|-------|---------|
A |----------|----------|----------|----------|--------|-------|---------|
E |----------|----------|----------|----------|--------|-------|---------|

e |-----7----|
B |---4------|
G |-4--------|
D |----------|
A |----------|
E |----------|


Middle Part Solo :

e |----------12-10--------9----------------------------------------------|
B |-------10----------------------12------12---10------------------------|
G |-/9-11------------9h11-----9/11----9/11---------7-7/9-9h11-9~~~~------|
D |----------------------------------------------------------------------|
A |----------------------------------------------------------------------|
E |----------------------------------------------------------------------|

e |----------12-10--------9----------------------------------------------|
B |-------10----------------------12------12---10------------------------|
G |-/9-11------------9h11-----9/11----9/11---------7-9/11-9-7h9~~~~------|
D |----------------------------------------------------------------------|
A |----------------------------------------------------------------------|
E |----------------------------------------------------------------------|

e |----------------------------------------------------------------------|
B |-------------------------------10-----10-12~~~~~~---------------------|
G |---------9----------9h11--9-11-----11---------------------------------|
D |-9-11-12---12-11-12---------------------------------------------------|
A |----------------------------------------------------------------------|
E |----------------------------------------------------------------------|

e |--------------------------------------10------------------------------|
B |-------------------------------10--------12~~~~~~---------------------|
G |---------9----------9h11--9-11-----11---------------------------------|
D |-9-11-12---12-11-12---------------------------------------------------|
A |----------------------------------------------------------------------|
E |----------------------------------------------------------------------|


Ending Solo :

e |----11~~--------------------------------------------------------------|
B |----------------------------------------------------------------------|
G |-12------12--10~------------------------------------------------------|
D |------------------13-12-13-13h15-15--15-13-----13p12-13~~~------------|
A |----------------------------------------------------------------------|
E |-------------------------------------------15-------------------------|

e |----------------------------------------------------------------------|
B |----------------------------------------------------------------------|
G |-------------------13----------------------12-------------------------|
D |-10-12-13-13~~--13----13-12--/10-12-12--12----12--10~~~~~-------------|
A |----------------------------------------------------------------------|
E |----------------------------------------------------------------------|

repeat the following solo until faded out

 |----------------------------------------------------------------------|
 |-18^18^18^18-16-18^18--16-15-16-16h18-18--18-15----16-15-16~~~~-------|
 |----------------------------------------------------------------------|
 |------------------------------------------------17--------------------|
 |----------------------------------------------------------------------|
 |----------------------------------------------------------------------|

 |------------------16---------------------15---------------------------|
 |-----15-16-16--16----16-15-----15-15--15----15---------15-16----15-16-|
 |-/17------------------------17------------------17--17-------17-------|
 |----------------------------------------------------------------------|
 |----------------------------------------------------------------------|
 |----------------------------------------------------------------------|


Gmaj7=GM7
╓———┬—●—┬———┬———┐ 
╟———┼———┼———┼———┤ 
╟———┼———┼———┼———┤ 
╟———┼———┼———┼———┤ 
╟———┼—●—┼———┼———┤ 
╙———┴———┴—●—┴———┘
F#
╓———┬—●—┬———┬———┐ 
╟———┼—●—┼———┼———┤ 
╟———┼—●—┼—●—┼———┤ 
╟———┼—●—┼———┼—●—┤ 
╟———┼—●—┼———┼—●—┤ 
╙———┴—●—┴———┴———┘
Bm 
╓———┬—●—┬———┬———┐ 
╟———┼—●—┼—●—┼———┤ 
╟———┼—●—┼———┼—●—┤ 
╟———┼—●—┼———┼—●—┤ 
╟———┼—●—┼———┼———┤ 
╙———┴—●—┴———┴———┘

添加到谱单
X

添加到谱单

《 早班火車 -- Beyond 》加入
◎ 选择已有谱单 创建新的

公开 (默认不公开,欢迎创建有意思的"公开谱单")

创建取消

推荐语(选填)

X

请先登录chord4


忘记密码