歌手头像-Beyond

再見理想

1 2 3 4 5
x

音乐人: Beyond

供谱者:reecho
再見理想 guitar tab #bp-1

I have modified the solo a little bit
The original solo will keeps you very
frustrated because the artifical
harmonics is very hard to play it well.


Intro: Overdrived guitar
       clean guitar plays the arpeggio


overdrived guitar
         Gm                 C                 F
e |-----|------------------|-----------------|--------------|
B |-----|------------------|-----------------|-----------3^-|
G |-12^-|-12-12^~~--5^5-3~-|-5^-5^5~-----2-3-|-2~~-2/3-5----|
D |-----|------------------|---------3-5-----|--------------|
A |-----|------------------|-----------------|--------------|
E |-----|------------------|-----------------|--------------|
   
clean guitar
   Gm                C                   F
e |-------3---------|--------8----------|-------5---------|
B |-----3---3-------|------8---8--------|-----6---6-------|
G |---3-------3---3-|----9-------9----9-|---5-------5---5-|
D |-5-----------5---|-10-----------10---|-7-----------7---|
A |-----------------|-------------------|-----------------|
E |-----------------|-------------------|-----------------|

overdrive guitar
   Gm           Gm              C
e |------------|---------------|-------------------|
B |-3~~--6/8-8-|-8~--8-8-11-13-|-13^-13^--13-11p13-|
G |------------|---------------|-------------------|
D |------------|---------------|-------------------|
A |------------|---------------|-------------------|
E |------------|---------------|-------------------|

clean guitar
   Gm                Gm                C
e |-------3---------|-------3---------|--------8----------|
B |-----3---3-------|-----3---3-------|------8---8--------|
G |---3-------3---3-|---3-------3---3-|----9-------9----9-|
D |-5-----------5---|-5-----------5---|-10-----------10---|
A |-----------------|-----------------|-------------------|
E |-----------------|-----------------|-------------------|

overdrive guitar
   F                       Gm
e |-13^13--10-8-10-8/10/8-|------------------------|
B |-----------------------|-11-8~~-----------------|
G |-----------------------|---------5^5-3----------|
D |-----------------------|---------------5~~~~----|
A |-----------------------|------------------------|
E |-----------------------|------------------------|

clean guitar
   F                 Gm                
e |-------5---------|-------3---------|
B |-----6---6-------|-----3---3-------|
G |---5-------5---7-|---3-------3---3-|
D |-7-----------7---|-5-----------5---|
A |-----------------|-----------------|
E |-----------------|-----------------|

verse : clean guitar plays arpeggio
        acoustic guitar plays rhythm
        (play this 2 times)

   Gm                C                   F
e |-------3---------|--------8----------|-------5---------|
B |-----3---3-------|------8---8--------|-----6---6-------|
G |---3-------3---3-|----9-------9----9-|---5-------5---5-|
D |-5-----------5---|-10-----------10---|-7-----------7---|
A |-----------------|-------------------|-----------------|
E |-----------------|-------------------|-----------------|
   
   Gm
e |-------3---------|
B |-----3---3-------|
G |---3-------3---3-|
D |-5-----------5---|
A |-----------------|
E |-----------------|

chorus: clean guitar plays arpeggio
        acoustic guitar plays the rhythm

   Bb                Gm                C
e |-------6---------|-------3---------|--------8----------|
B |-----6---6-------|-----3---3-------|------8---8--------|
G |---7-------7---7-|---3-------3---3-|----9-------9----9-|
D |-8-----------8---|-5-----------5---|-10-----------10---|
A |-----------------|-----------------|-------------------|
E |-----------------|-----------------|-------------------|

   Gm                  Bb                F
e |--------8----------|-------6---------|-------1---------|
B |------8---8--------|-----6---6-------|-----1---1-------|
G |----9-------9----9-|---7-------7---7-|---2-------2---2-|
D |-10-----------10---|-8-----------8---|-3-----------3---|
A |-------------------|-----------------|-----------------|
E |-------------------|-----------------|-----------------|

   Cm                Gm     F      Eb     D7      D7
e |-------3-------3-|-----3-----1-|-----3-----2--|-----------|
B |-----4---4-------|-------------|---4-----1----|-----------|
G |---5-------5-----|---3-----2---|-3-----2------|-----------|
D |-5-----------5---|-5-----3-----|--------------|-----------|
A |-----------------|-------------|--------------|-----------|
E |-----------------|-------------|--------------|-----------|

* the last bar plays nothing with only 
  overdrived guitar fill in like this :

   D7
e |--------------|
B |--------------|
G |-5^5-3--------|
D |-------5-5~~--|
A |--------------|
E |--------------|

repeat the verse like above
repeat the chorus like above 

guitar solo: with clean guitar plays the arpeggio of the verse

   Gm               C           F            Gm
e |----------------|-----------|------------|----------------------------|
B |----------------|-----------|------------|----------------------------|
G |-5^-5^--5^5-3-5-|-5-5^5-3-5-|-----2-3-2~-|-2/3---5^5-3----------------|
D |----------------|-----------|-3-5--------|-----5-------5--------------|
A |----------------|-----------|------------|----------------3-1-0-------|
E |----------------|-----------|------------|----------------------------|

   Gm                      C              F
e |-----------------------|--------------|------------|
B |-----------------------|--------------|------------|
G |-5^-5^--5^-5^-5^-5^5-3-|-3h5--5^5-3-5-|-----2-3-2~-|
D |-----------------------|--------------|-3-5--------|
A |-----------------------|--------------|------------|
E |-----------------------|--------------|------------|

   Gm
e |---------------------------------------------------|
B |--------------------------------3-4-6-4-3----------|
G |-5^5-3---------3-3----------3-5-----------3-3~~----|
D |-------5-3/1-0-----5~~--3-5------------------------|
A |---------------------------------------------------|
E |---------------------------------------------------|

repeat the chorus like blow:

   Bb                Gm                C
e |-------6---------|-------3---------|--------8----------|
B |-----6---6-------|-----3---3-------|------8---8--------|
G |---7-------7---7-|---3-------3---3-|----9-------9----9-|
D |-8-----------8---|-5-----------5---|-10-----------10---|
A |-----------------|-----------------|-------------------|
E |-----------------|-----------------|-------------------|

e |-----------------|-17~-13-15-10~~--|-------------------|
B |-----------------|-----------------|-------------------|
G |-----------------|-----------------|-------------------|
D |-----------------|-----------------|-------------------|
A |-----------------|-----------------|-------------------|
E |-----------------|-----------------|-------------------|

   Gm                  Bb                F
e |--------8----------|-------6---------|-------1---------|
B |------8---8--------|-----6---6-------|-----1---1-------|
G |----9-------9----9-|---7-------7---7-|---2-------2---2-|
D |-10-----------10---|-8-----------8---|-3-----------3---|
A |-------------------|-----------------|-----------------|
E |-------------------|-----------------|-----------------|

e |--------------------|-----------------|-------------------|
B |-13^13-11-10-10h11~-|-----------------|-------------------|
G |--------------------|-----------------|-5^5-3-3h5~~-------|
D |--------------------|-----------------|-------------------|
A |--------------------|-----------------|-------------------|
E |--------------------|-----------------|-------------------|

   Cm                Gm     F      Eb     D7      D7
e |-------3-------3-|-----3-----1-|-----3-----2--|-----------|
B |-----4---4-------|-------------|---4-----1----|-----------|
G |---5-------5-----|---3-----2---|-3-----2------|-----------|
D |-5-----------5---|-5-----3-----|--------------|-----------|
A |-----------------|-------------|--------------|-----------|
E |-----------------|-------------|--------------|-----------|

e |-----------------|-------------|--------------|-----------|
B |---3-4----3-4----|-3-----------|--------------|-----------|
G |-5------5--------|-------5-----|-3-----2------|-----------|
D |-----------------|-------------|--------------|-----------|
A |-----------------|-------------|--------------|-----------|
E |-----------------|-------------|--------------|-----------|


repeat and fade out

transcribed by Jan Wong

|------------------- The End -------------------------|
添加到谱单
X

添加到谱单

《 再見理想 -- Beyond 》加入
◎ 选择已有谱单 创建新的

公开 (默认不公开,欢迎创建有意思的"公开谱单")

创建取消

推荐语(选填)

X

请先登录chord4


忘记密码